Song name
# A B C D E F G H I J K L M N O P Q R S T U V W X Y Z

The Lonely Forest - Coyote tab

Hi. I just tabbed Guitar 1 because I'm playing acoustic

Tabbed by ReporterAndrew from
http://www.youtube.com/watch?v=JXmnAdTmW0k

Capo 7

Intro x2/Verse x2/Pause x1/Verse x2

    Ds
e|-----------------------------------------------------|
B|---------0-----------0----------------------0--------|
G|------0-----0-----0-----0--------0--------------0----|
D|---2-----------0--------------0-----0----0-----------|
A|---------------------------3-------------------------|
E|--------------------------------------3--------------|

Chorus

     G Em Cm  G
e|---------------|
B|---------------|
G|---------5-----|
D|---5--2--5--5--|
A|---5--2--3--5--|
E|---3--0-----3--|

Breakdown x2
e|------------------------------------------------------------------|
B|------------------------------------------------------------------|
G|----------------------------------5-5-5-5-5-5-5-------------------|
D|---5-5-5-5-5-5-5--2-2-2-2-2-2-2---5-5-5-5-5-5-5--5-5-5-5-5-5-5----|
A|---5-5-5-5-5-5-5--2-2-2-3-2-2-2---3-3-3-5-3-3-3--5-5-5-5-5-5-5----|
E|---3-3-3-5-3-3-3--0-0-0-0-0-0-0------------------3-3-3-5-3-3-3----|

Back to verse x2
Tap to rate this tab
 
# A B C D E F G H I J K L M N O P Q R S T U V W X Y Z