Song name
# A B C D E F G H I J K L M N O P Q R S T U V W X Y Z

The Lonely Island - Mother Lover tab

My first tab for this awsome song. Hope you like it!

www.thelonelyisland.com/

-------------------------------------------------------------------------------
	                 MOTHER LOVER - Lonely Island
-------------------------------------------------------------------------------
Tabbed by: Everlooong

Tuning: Standard

Intro, Verse

e|---------------------------------------------------------------------------|
B|----3----3----3----3----4----4----2----2-----------------------------------|
G|----5----5----5----5----4----4----2----2-----------------------------------|
D|----5----5----5----5----4----4----4----4-----------------------------------|
A|---4----4----4----4----3----3----4----4------------------------------------|
E|---------------------------------------------------------------------------|

Chorus

e|----2----4----2------------------------------------------------------------|
B|----3----5----2------------------------------------------------------------|
G|----3----6----2------------------------------------------------------------|
D|----3----6----4------------------------------------------------------------|
A|----2----4----2------------------------------------------------------------|
E|----2----4----2------------------------------------------------------------|

| /  slide up
| \  slide down
| h  hammer-on
| p  pull-off
| ~  vibrato
| +  harmonic
| x  Mute note
===============================================================================
Tap to rate this tab
# A B C D E F G H I J K L M N O P Q R S T U V W X Y Z