Song name
# A B C D E F G H I J K L M N O P Q R S T U V W X Y Z

The Lonely Island - We Like Sportz tab

e -x----x----x--x----x--x--x----|
b -x----x----x--x----x--x--x----|
g -5----5----5--5----8--8--8----|
d -5----5----5--5----8--8--8----|
a -3----3----3--3----6--6--6----|
e -x----x----x--x----x--x--x----|

e -x-----x-----x---x-----x---x---x--|
b -x-----x-----x---x-----x---x---x--|
g -10----10----10--10----12--12--12-|
d -10----10----10--10----12--12--12-|
a -8-----8-----8---8-----10--10--10-|
e -x-----x-----x---x-----x---x---x--|

Play throughout song. It sounds pretty cool (:
Tap to rate this tab
 
# A B C D E F G H I J K L M N O P Q R S T U V W X Y Z