Song name
# A B C D E F G H I J K L M N O P Q R S T U V W X Y Z

The Lonely Island - Shrooms tab

ok, for starters this song incredibly stupid (in an awesome way) and i was really bored
i started playing along with it on my guitar and this is what i came up with. so i hope
enjoy the stupidity and here is my rendition of The Lonely Island's "Shrooms". PLEASE 
AND COMMENT

TUNING: DROP D (DADGBe)


(finger tap) play along to the synth
|-----------------------------------------------------------------|
|-------------14-13-14-13-------------14-13-14-13-----------------|
|-13-14-13-14-------------13-14-13-14-------------13--14--15--16--|
|-----------------------------------------------------------------|(x4)
|-----------------------------------------------------------------|
|-----------------------------------------------------------------|

this part is meant to sorta match up with the voices that are (not) singing
|-------------------------------------------------------|
|-------------------------------------------------------|
|-------------------------------------------------------|
|-5--5-55-5-7--10--10-10-1010-7-3--3-33-3-2-7-5--5-55-5-|(x2)
|-5--5-55-5-7--10--10-10-1010-7-3--3-33-3-2-7-5--5-55-5-|
|-5--5-55-5-7--10--10-10-1010-7-3--3-33-3-2-7-5--5-55-5-|
              (these are tens)

|-----------------------------------------------------------------|
|-------------14-13-14-13-------------14-13-14-13-----------------|
|-13-14-13-14-------------13-14-13-14-------------13--14--15------|
|-----------------------------------------------------------------|
|-----------------------------------------------------------------|
|-----------------------------------------------------------------|
Tap to rate this tab
# A B C D E F G H I J K L M N O P Q R S T U V W X Y Z