Song name
# A B C D E F G H I J K L M N O P Q R S T U V W X Y Z

The Lonely Island - Shrooms tab

   It's late at night, I heard this, love the beat so I just learned it by ear xD And I 
the rest of the world needs to know how to play it. Hope you enjoy my not really hard 
:)


Band: The Lonely Island
Song: Shrooms (Interlude)


- Lead

e|------------15-17-15----------------15-17-15--------------------------|
B|---15-17-18----------18-17-15-17-18----------18-17-13-----15-----17---|
G|----------------------------------------------------------------------|
D|----------------------------------------------------------------------|
A|----------------------------------------------------------------------|
E|----------------------------------------------------------------------|
                                                 .....I'm on shrooms!!!


- Bass

e|----------------------------------------------------------------------|
B|------------------------------12-------------------------------8------|
G|------10---10-----10---10----------10---9---9----9---9----10----------|
D|----------------------------------------------------------------------|
A|----------------------------------------------------------------------|
E|---10----------10----------10---------8--------8-------8--------------|


 *Repeat both 4 times til the chrorus*


-Lead

e|----------------------------------------------------------------------|
B|------------------12--13----/15----13--12-----------------------------|
G|---12-----12--14---------------------------12--10---------/14--12-----|
D|------------------------------------------------------12--------------|
A|----------------------------------------------------------------------|
E|----------------------------------------------------------------------|

 The bass for the chorus is a bit harder to figure out, and my laziness and need for 
is kicking in. You'll probably only want the lead anyways xD Well I hope you like this and 
thumb this down for my laziness (I mean its about 4:30 am, don't judge :P )
Tap to rate this tab
 
# A B C D E F G H I J K L M N O P Q R S T U V W X Y Z