Song name
# A B C D E F G H I J K L M N O P Q R S T U V W X Y Z

The Lonely Island - Threw It On The Ground tab

INTRO:              (slow down)
e ----------------- -------------|
B ----------------- -------------|
G ----------------- -------------|
D ----------------- -------------|
A ----------------- -6-6-6-5-5-5-|
E -3-3-3-3-3-3-3-3- -------------|

VERSE:(palm muted)
e ---------------- ----------------- ----------------- -----------------|
B ---------------- ----------------- ----------------- -----------------|
G ---------------- ----------------- ----------------- -----------------|
D ---------------- ----------------- ----------------- -----------------|
A ---------------- ----------------- ----------------- -3-3-3-3-1-1-1-1-|
E -3-3-3-3-3-3-3-3 -6-6-6-6-6-6-6-6- -3-3-3-3-3-3-3-3- -----------------|

 I was walkin... the city streets.    And a man walks...hand's me...drink.

e ---------------- ----------------- ----------------- -----------------|
B ---------------- ----------------- ----------------- -----------------|
G ---------------- ----------------- ----------------- -----------------|
D ---------------- ----------------- ----------------- -----------------|
A ---------------- ----------------- ----------------- -6-6-6-6-5-5-5-5-|
E -3-3-3-3-3-3-3-3 -6-6-6-6-6-6-6-6- -3-3-3-3-3-3-3-3- -----------------|

  "Run faster, jump higher" MAN!      I'm not gonna...  poisin me. I threw
                                                                 it on the..

CHORUS:(not palm muted)
e -3-3-3-3-3-3-3-3 6-6-6-6-6-6-6-6 3-3-3-3-3-3-3-3 11-11-11-11-10-10-10-10-|
B ---------------- --------------- --------------- ------------------------|
G ---------------- --------------- --------------- ------------------------|
D ---------------- --------------- --------------- ------------------------|
A ---------------- --------------- --------------- ------------------------|
E ---------------- --------------- --------------- ----------------repeat--|

..GROUND!!!       You must think...joke!         I ain't gonna be part of...
..SYSTEM!!!       MAN!   Pump that garbage in an... FACE!

SONG ORDER:
 -Intro
 -Verse
 -Chorus
 -Verse
 -Chorus
 -Verse
 -Chorus
 -Verse
 -Chorus
 -Bridge(same as verse) ie. 'So many thing's...'
 -Verse
 -Chorus

Hope you can read it. It's difficult to tab.
Please leave a comment or a rating!

Phil
Tap to rate this tab
 
# A B C D E F G H I J K L M N O P Q R S T U V W X Y Z