Song name
# A B C D E F G H I J K L M N O P Q R S T U V W X Y Z

The Long Blondes - Fulwood Babylon tab

Artist: The Long Blondes
Track: Fulwood Babylon
Tabber: Interpol87

This tab is just for the guitar parts of the song. Fairly simple. Listen for the timing 
it isnt represented in the tab, its just the progrssion of notes that is show.


Verse/Chorus

e|---7---10------------------------------------|
B|---8---12------------------------------------|
G|---9---12------------------------------------|
D|---------------------------------------------|
A|---------------------------------------------|
E|---------------------------------------------|


Outro

e|---5---6---7---12---11---10------------------|
B|---6---7---8---13---12---12------------------|
G|---7---8---9---14---13---12------------------|
D|---------------------------------------------|
A|---------------------------------------------|
E|---------------------------------------------|
Tap to rate this tab
 
# A B C D E F G H I J K L M N O P Q R S T U V W X Y Z