Guitaretab - guitar tabs
Song name
# A B C D E F G H I J K L M N O P Q R S T U V W X Y Z

The Long Blondes - Once And Never Again tab

Artist: The Long Blondes    http://www.thelongblondes.co.uk/
Track:  Once and Never Again
Album: Someone to Drive You Home
Tabber: Woodshed

INTRO

e|---------------------------------------------------------15-15-15-15---|
B|----------11/12---------8-----------10-------------------15-15-15-15---|
G|---12-----------11\--------9------------11--11/12--12/16---------------|
D|-------14------------10--------10/12-----------------------------------|
A|-----------------------------------------------------------------------|
E|-----------------------------------------------------------------------|



G   Bm          C            D
19, youíre only 19 for Godís sake

G                Bm       C   D
You donít need a boyfriend

G   Bm          C            D
19, youíre only 19 for Godís sake

G                Bm       C   D
You donít need a boyfriend

   G                Bm              C              D
e|-----------------------------------------------------------------------|
B|-----------------------------------------------------------------------|
G|------4--------------4------------5-4-5----------/7-5-4----------------|
D|----5---5----------4---4-----------------------------------------------|
A|-----------------------------------------------------------------------|
E|-----------------------------------------------------------------------|
      Look what heís made you do to your arm again


   G              Bm              C              D
e|-----------------------------------------------------------------------|
B|-----------------------------------------------------------------------|
G|------4------------4------------5-4-5----------/7-5-4------------------|
D|----5---5--------4---4-------------------------------------------------|
A|-----------------------------------------------------------------------|
E|-----------------------------------------------------------------------|
      He said heíd come but heís gone out with his friends


G             Bm               C                D               G
I know how it feels to be your age and feel the world is caving in


e|-----------------------------------------------------------------------|
B|--------------------------------8-9--------10-10-----------------------|
G|---12---11-12-11--9--8--9-------9-9--------11-11-----------------------|
D|-----------------------------10-----10-/12--------12-------------------|
A|-----------------------------------------------------------------------|
E|-----------------------------------------------------------------------|


      G               Em            Bm             F#m
e|--------------------12-12-12-12---14-14-14-14----14-14-14-14-----------|
B|----12-x-12-12-12---12-12-12-12---15-15-15-15----14-14-14-14-----------|
G|----12-x-12-12-12---12-12-12-12---16-16-16-16----14-14-14-14-----------|
D|----12-x-12-12-12---14-14-14-14------------------16-16-16-16-----------|
A|----10-x-10-10-10------------------------------------------------------|
E|-----------------------------------------------------------------------|
      Another         drama by the  kitchen sink    tonight


C              D                   C              D
You said youíd cut yourself whilst washing up the knives


      G               Em            Bm             F#m
e|--------------------12-12-12-12---14-14-14-14----14-14-14-14-----------|
B|----12-x-12-12-12---12-12-12-12---15-15-15-15----14-14-14-14-----------|
G|----12-x-12-12-12---12-12-12-12---16-16-16-16----14-14-14-14-----------|
D|----12-x-12-12-12---14-14-14-14------------------16-16-16-16-----------|
A|----10-x-10-10-10------------------------------------------------------|
E|-----------------------------------------------------------------------|
      Another         week of school wonít do you any good

C                 D                G
And I know how it feels to be your age


G   Bm          C            D
19, youíre only 19 for Godís sake

G                Bm       C   D
You donít need a boyfriend

G   Bm          C            D
19, youíre only 19 for Godís sake

G                Bm       C   D
You donít need a boyfriend

   G              Bm              C              D
e|-----------------------------------------------------------------------|
B|-----------------------------------------------------------------------|
G|------4------------4------------5-4-5----------/7-5-4------------------|
D|----5---5--------4---4-------------------------------------------------|
A|-----------------------------------------------------------------------|
E|-----------------------------------------------------------------------|
     Come out with me and find out what you really want
[ Tab from: http://www.guitaretab.com/t/the-long-blondes/79093.html ]
   G              Bm              C              D
e|-----------------------------------------------------------------------|
B|-----------------------------------------------------------------------|
G|------4------------4------------5-4-5----------/7-5-4------------------|
D|----5---5--------4---4-------------------------------------------------|
A|-----------------------------------------------------------------------|
E|-----------------------------------------------------------------------|
      Come out with me you only have to do it   once


       G             Bm               C             D             G
ĎCause I know how it feels to be your age, you only have to do it once


e|-----------------------------------------------------------------------|
B|--------------------------------8-9--------10-10-----------------------|
G|---12---11-12-11--9--8--9-------9-9--------11-11-----------------------|
D|-----------------------------10-----10-/12--------12-------------------|
A|-----------------------------------------------------------------------|
E|-----------------------------------------------------------------------|
                           And never again

      G               Em            Bm             F#m
e|--------------------12-12-12-12---14-14-14-14----14-14-14-14-----------|
B|----12-x-12-12-12---12-12-12-12---15-15-15-15----14-14-14-14-----------|
G|----12-x-12-12-12---12-12-12-12---16-16-16-16----14-14-14-14-----------|
D|----12-x-12-12-12---14-14-14-14------------------16-16-16-16-----------|
A|----10-x-10-10-10------------------------------------------------------|
E|-----------------------------------------------------------------------|
      Another         drama by the  kitchen sink    tonight


C              D                   C              D
You said youíd cut yourself whilst washing up the knives



e|----------------------------------------------------------------------|
B|---------------------------11/12--------------------------------------|
G|-12---------------------------------11--------------------------------|
D|---------14-----------------------------------------------------------|
A|----------------------------------------------------------------------|
E|----------------------------------------------------------------------|
   Another week of school wonít do you any good 

e|--------------------------------------------------15-15-15-15-15-------|
B|------8------------10-----------------------------15-15-15-15-15-------|
G|---------9------------11-11/12-12-12-12--12/16-16----------------------|
D|---10--------10/12-----------------------------------------------------|
A|-----------------------------------------------------------------------|
E|-----------------------------------------------------------------------|
  And I know how it feels to be your age



You know Iím not so young
I spend an hour getting ready every day
And still I end up looking more or less the same


C           D        C          D
But I could show you a thing or two


G          Bm           C     D
Oh I could show you the ropes

G           Bm           C     D
Yes I could show you the ropes

   G              Bm              C              D
e|-----------------------------------------------------------------------|
B|-----------------------------------------------------------------------|
G|------4------------4------------5-4-5----------/7-5-4------------------|
D|----5---5--------4---4-------------------------------------------------|
A|-----------------------------------------------------------------------|
E|-----------------------------------------------------------------------|
      And Iíll     cut my         hair for       you

   G              Bm              C              D
e|-----------------------------------------------------------------------|
B|-----------------------------------------------------------------------|
G|------4------------4------------5-4-5----------/7----------------------|
D|----5---5--------4---4-------------------------------------------------|
A|-----------------------------------------------------------------------|
E|-----------------------------------------------------------------------|
     ĎCause I      know how  it feels


G             Bm               C     D
I know how it feels to be your age

G             Bm               C     D
I know how it feels to be your age


G       Em      Bm     F#m
How Iíd love to feel a girl your 


C    D
Age

     C   D
Your age


C        D     G
Once and never again

e|--2/3----------------------------------|
B|--2/3----------------------------------|
G|--3/4----------------------------------|
D|--4/5----------------------------------|
A|--4/5----------------------------------|
E|--2/3----------------------------------|
Related for Once And Never Again tab