Song name
# A B C D E F G H I J K L M N O P Q R S T U V W X Y Z

The Long Blondes - Separated By Motorways tab

Help us improve GuitareTab! Take a short survey!
Artist: The Long Blondes    http://www.thelongblondes.co.uk/
Track: Someone to Drive You Home 
Album: Separated By Motorways
Tabber: Woodshed




VERSE 1

e|----------------------------------------------6----------------------|
B|---------------8-6-8--6----------------8-6-8-------------------------|
G|---------------------------------------------------7-----------------|
D|---------------------------------------------------------------------|
A|---------------------------------------------------------------------|
E|---------------------------------------------------------------------|
      In the pub where we learned how to talk about bands

e|----------------------------------------6-6--------------------------|
B|----8-6-8-8-6------------------8-6-8---------------------------------|
G|---------------------------------------------------------------------|
D|---------------------------------------------------------------------|
A|---------------------------------------------------------------------|
E|---------------------------------------------------------------------|
 You stand up yourself with your vodka in hand


e|---------------------------------------------------------------------|
B|---------------------------------------------------------------------|
G|---8-8-7-7-6-6-5-4----4-3--2-2-3-4-----------------------------------|
D|---------------------------------------------------------------------|
A|---------------------------------------------------------------------|
E|---------------------------------------------------------------------|
Oh girl, your waiting for a pitiful man

e|---------------------------------------------------------------------|
B|---------------------------------------------------------------------|
G|---0--0-0-3-3-2-3-0--0-0-3-3-4-4---4/--------------------------------|
D|---------------------------------------------------------------------|
A|---------------------------------------------------------------------|
E|---------------------------------------------------------------------|


e|--------------------------------------6------------------------------|
B|-----------8-6-8--6-----------8-6-8----------------------------------|
G|----------------------------------------------7----------------------|
D|---------------------------------------------------------------------|
A|---------------------------------------------------------------------|
E|---------------------------------------------------------------------|
In the pub, at the bar, with the overnight 

e|--------------------------------6-6----------------------------------|
B|----8-6-8-8-6---------8-6-8------------------------------------------|
G|---------------------------------------------------------------------|
D|---------------------------------------------------------------------|
A|---------------------------------------------------------------------|
E|---------------------------------------------------------------------|
   Alone with a pint of bitter in hand

e|---------------------------------------------------------------------|
B|---------------------------------------------------------------------|
G|---8-8-7-7-6-6-5-4----4-3--2-2-3-4-----------------------------------|
D|---------------------------------------------------------------------|
A|---------------------------------------------------------------------|
E|---------------------------------------------------------------------|
For a girl this is not an acceptable plan

e|---------------------------------------------------------------------|
B|---------------------------------------------------------------------|
G|---0--0-0-3-3-2-3-0--0-0-3-3-4-4-------------------------------------|
D|---------------------------------------------------------------------|
A|---------------------------------------------------------------------|
E|---------------------------------------------------------------------|


BRIDGE

C                     D
Rub your eyes darling it's OK

C                   D
Meet me on the dual carriage way

CHORUS

G            Em
Separated by motorways

    C           D/A
The A14 and the A1

G            Em 
Separated by motorways

C                   D/A
Two lonely girls go on the run


e|---15-15-15-15-15--15--15--15----------------------------------------|
B|---15-15-15-15-15--15--15--15----------------------------------------|
G|---12-12-12-12-12--12--12--12----------------------------------------|
D|---------------------------------------------------------------------|
A|---------------------------------------------------------------------|
E|---------------------------------------------------------------------|

Repeat x3


VERSE 2


e|---15-15-15-15-15--15--15--15----------------------------------------|
B|---15-15-15-15-15--15--15--15----------------------------------------|
G|---12-12-12-12-12--12--12--12----------------------------------------|
D|---------------------------------------------------------------------|
A|---------------------------------------------------------------------|
E|---------------------------------------------------------------------|
I heard from the boys

e|---15-15-15-15-15--15--15--15----------------------------------------|
B|---15-15-15-15-15--15--15--15----------------------------------------|
G|---12-12-12-12-12--12--12--12----------------------------------------|
D|---------------------------------------------------------------------|
A|---------------------------------------------------------------------|
E|---------------------------------------------------------------------|
You were down on your knees


e|---15-15-15-15-15--15--15--15----------------------------------------|
B|---15-15-15-15-15--15--15--15----------------------------------------|
G|---12-12-12-12-12--12--12--12----------------------------------------|
D|---------------------------------------------------------------------|
A|---------------------------------------------------------------------|
E|---------------------------------------------------------------------|
Last night they were worried you were looking a sight

e|---------------------------------------------------------------------|
B|---------------------------------------------------------------------|
G|---8-8-7-7-6-6-5-4----4-3--2--3-4------------------------------------|
D|---------------------------------------------------------------------|
A|---------------------------------------------------------------------|
E|---------------------------------------------------------------------|
Oh girl, you're too wonderful

e|---------------------------------------------------------------------|
B|---------------------------------------------------------------------|
G|---0--0-0-3-3-2-3-0--0-0-3-3-4-4-------------------------------------|
D|---------------------------------------------------------------------|
A|---------------------------------------------------------------------|
E|---------------------------------------------------------------------|



e|----------------------------------------------6----------------------|
B|---------------8-6-8--6----------------8-6-8-------------------------|
G|---------------------------------------------------7-----------------|
D|---------------------------------------------------------------------|
A|---------------------------------------------------------------------|
E|---------------------------------------------------------------------|
       At work, miles away, in the 

e|----------------------------------------------6-6--------------------|
B|-------8-6-8-8-6------------------8-6-8------------------------------|
G|---------------------------------------------------------------------|
D|---------------------------------------------------------------------|
A|---------------------------------------------------------------------|
E|---------------------------------------------------------------------|
I can't escape from the people and the records I hate

e|---------------------------------------------------------------------|
B|---------------------------------------------------------------------|
G|---8-8-7-7-6-6-5-4----4-3--2-2-3-4-----------------------------------|
D|---------------------------------------------------------------------|
A|---------------------------------------------------------------------|
E|---------------------------------------------------------------------|
No wonder I'm always fifteen minutes late

e|---------------------------------------------------------------------|
B|---------------------------------------------------------------------|
G|---0--0-0-3-3-2-3-0--0-0-3-3-4-4-------------------------------------|
D|---------------------------------------------------------------------|
A|---------------------------------------------------------------------|
E|---------------------------------------------------------------------|

BRIDGE

C         D
Rub your eyes darling it's OK 

C           D
Meet me on the dual carriage way


CHORUS 


G            Em
Separated by motorways

    C           D/A
The A14 and the A1

G            Em 
Separated by motorways

C                   D/A
Two lonely girls go on the run

G            Em
Separated by motorways

    C           D/A
The A14 and the A1

G            Em 
Separated by motorways

C                   D/A
Two lonely girls go on the run


C                   D/A
Two lonely girls go on the run

C                   D/A    G
Two lonely girls go on the run
Related for Separated By Motorways tab