Song name
# A B C D E F G H I J K L M N O P Q R S T U V W X Y Z

The Long Blondes - Lust In The Movies tab

Artist: The Long Blondes    http://www.thelongblondes.co.uk/
Track: Lust In The Movies
Album: Someone to Drive You Home 
Tabber: Woodshed


INTRO

feedback                       feedback          play strings behind nut
e|-------------------------------------------------------------------------|
B|------------------------12~----------------------------------------------|
G|-------------------------------------------------------------------------|
D|-------------------------------------------------------------------------|
A|-------------------------------------------------------------------------|
E|-------------------------------------------------------------------------|


VERSE 1

e|--x-x-x------------------------------------------------------------------|
B|--x-x-x------------------------------------------------------------------|
G|--x-x-x-------3--3--3-3-3-3-0-0-0-0-6-6-5-6------------------------------|
D|--x-x-x------------------------------------------------------------------|
A|-------------------------------------------------------------------------|
E|-------------------------------------------------------------------------|
A svelte young man, 

e|-------------------------------------x-x-x-------------------------------|
B|-------------------------------------x-x-x-------------------------------|
G|-------------3--3--3-3-3-3-0-0-0-0-6-x-x-x-------------------------------|
D|-------------------------------------x-x-x-------------------------------|
A|-------------------------------------------------------------------------|
E|-------------------------------------------------------------------------|
Eighteen lovers to his name.

Riff 1
e|-------------------------------------------------------------------------|
B|-------------------------------------------------------------------------|
G|----------3--3--3-3-3-3-0-0-0-0-6-6-5-6----------------------------------|
D|-------------------------------------------------------------------------|
A|-------------------------------------------------------------------------|
E|-------------------------------------------------------------------------|
Well if the rumours are true then eighteen lovers came crawling back again.

Riff 1
I don't feel well.

Riff 1
I've got this rattling in my chest.

Riff 1
And the doctor said that I should give it up because I'm clinically obsessed.


e|-------------------------------------------------------------------------|
B|-------3-----3-----/8-8-8------------------------------------------------|
G|---3-3---3-3---3-----------6-6-6--7-6------------------------------------|
D|-------------------------------------------------------------------------|
A|-------------------------------------------------------------------------|
E|-------------------------------------------------------------------------|

e|-------------------------------------------------------------------------|
B|-------3-----3-----/8-8-8-8-8b9-9-9-9------------------------------------|
G|---3-3---3-3---3---------------------------------------------------------|
D|-------------------------------------------------------------------------|
A|-------------------------------------------------------------------------|
E|-------------------------------------------------------------------------|


Riff 1
I know you think you're in the movies.

Riff 1
You're in the movies that don't wanna know me.

Riff 1
Well I know all about fear and desire, 


e|-------------------------------------------------------------------------|
B|-------------------------------------------------------------------------|
G|--------------3--3--3-3-3-3-0-0-0-0-5/6-6-5/6-6--------------------------|
D|-------------------------------------------------------------------------|
A|-------------------------------------------------------------------------|
E|-------------------------------------------------------------------------|

And I know all about lust et cetera.


CHORUS

Bb             C#           Ab  
Edie Sedgwick, Anna Karina, Arlene Dahl.


Bb             C#           Ab  
Edie Sedgwick, Anna Karina, Arlene Dahl.

Bb                       Ab
I just want to be a sweetheart.

Bb                       Ab
I just want to be a sweetheart.

Bb                       Ab   Bb
I just want to be a sweetheart.


VERSE 2

A sweet young girl, 

e|--x-x-x------------------------------------------------------------------|
B|--x-x-x------------------------------------------------------------------|
G|--x-x-x-------3--3--3-3-3-3-0-0-0-0-6-6-5-6------------------------------|
D|--x-x-x------------------------------------------------------------------|
A|-------------------------------------------------------------------------|
E|-------------------------------------------------------------------------|
Dressed to the nines in Cacharel.

Riff 1
Oh, under the weather my heels click together, 

Riff 1
And following her is hell.

Riff 1
I feel quite ill.

Riff 1
I've got this rattling in my chest.

Riff 1
My doctor said that I should give it up,

e|-------------------------------------------------------------------------|
B|-------------------------------------------------------------------------|
G|--------------3--3--3-3-3-3-0-0-0-0-5/6-6-5/6-6-6-6----------------------|
D|-------------------------------------------------------------------------|
A|-------------------------------------------------------------------------|
E|-------------------------------------------------------------------------|
 I need to get some rest.


CHORUS

Bb             C#           Ab  
Edie Sedgwick, Anna Karina, Arlene Dahl.


Bb             C#           Ab  
Edie Sedgwick, Anna Karina, Arlene Dahl.

Bb                       Ab
I just want to be a sweetheart.

Bb                       Ab
I just want to be a sweetheart.

Bb                       Ab   Bb
I just want to be a sweetheart.


MIDDLE 8

e|------4-------4----------------------------------------------------------|
B|--------4-------4--------------------------------------------------------|
G|-------------------------------------------------------------------------|
D|----6------6---------8-8-8-8-8-8-8-8-8-8-8-8-8-8-8-8---------------------------------------|
A|-------------------------------------------------------------------------|
E|-------------------------------------------------------------------------|
So never, never, never try to tell me it's a pleasure being alone.

e|----4------4---3---2----1------------------------------------------------|
B|------4--------3-----2--1------------------------------------------------|
G|---------------4--3-----2-----------------13b15--------------------------|
D|--6-----6------5--4-----3------------------------------------------------|
A|-------------------------------------------------------------------------|
E|-------------------------------------------------------------------------|
All I have here with me are the records and the books that I own.

e|-------------------------------------------------------------------------|
B|-------------------------------------------------------------------------|
G|----------3--3--3-3-3-3-0-0-0-0-6-6-5-6----------------------------------|
D|-------------------------------------------------------------------------|
A|-------------------------------------------------------------------------|
E|-------------------------------------------------------------------------|

e|-------------------------------------------------------------------------|
B|-------------------------------------------------------------------------|
G|--------------3--3--3-3-3-3-0-0-0-0-5/6-6-5/6-6-6-6----------------------|
D|-------------------------------------------------------------------------|
A|-------------------------------------------------------------------------|
E|-------------------------------------------------------------------------|

e|-------------------------------------------------------------------------|
B|-------3-----3-----/8-8-8------------------------------------------------|
G|---3-3---3-3---3-----------6-6-6--7-6------------------------------------|
D|-------------------------------------------------------------------------|
A|-------------------------------------------------------------------------|
E|-------------------------------------------------------------------------|

e|-------------------------------------------------------------------------|
B|-------3-----3-----/8-8-8-8-8b9-9-9-9------------------------------------|
G|---3-3---3-3---3---------------------------------------------------------|
D|-------------------------------------------------------------------------|
A|-------------------------------------------------------------------------|
E|-------------------------------------------------------------------------|


Bb

Nag, nag, nag.
Nag, nag, nag.
Nag, nag, nag.
Nag, nag, nag.


CHORUS

Bb             C#           Ab  
Edie Sedgwick, Anna Karina, Arlene Dahl.


Bb             C#           Ab  
Edie Sedgwick, Anna Karina, Arlene Dahl.

Bb                       Ab
I just want to be a sweetheart.

Bb                       Ab
I just want to be a sweetheart.

Bb                       Ab   Bb
I just want to be a sweetheart.
Tap to rate this tab
# A B C D E F G H I J K L M N O P Q R S T U V W X Y Z