Song name
# A B C D E F G H I J K L M N O P Q R S T U V W X Y Z

The Long Blondes - Christmas Is Cancelled tab

Artist: The Long Blondes    http://www.thelongblondes.co.uk/
Track: Christmas Is Cancelled
Tabber: Woodshed

INTRO

Riff 1
B    E        F#        B      
e|-------------------------------------------------------------------------|
B|-------------------------------------------------------------------------|
G|----9-9-8-8-6-6-8-8---8--8--8--------------------------------------------|
D|----------------------9--9--9--------------------------------------------|
A|----------------------9--9--9--------------------------------------------|
E|-------------------------------------------------------------------------|

     E        F#        B 
e|-------------------------------------------------------------------------|
B|-------------------------------------------------------------------------|
G|----9-9-8-8-6-6-8-8---8--8--8--------------------------------------------|
D|----------------------9--9--9--------------------------------------------|
A|----------------------9--9--9--------------------------------------------|
E|-------------------------------------------------------------------------|

     E        F#        E             F#
e|-------------------------------------------------------------------------|
B|-------------------------------------------------------------------------|
G|----9-9-8-8-6-6-8-8---------4-------6--6-6-6-6---------------------------|
D|-----------------------6--6----6----8--8-8-8-8---------------------------|
A|-------------------------------------------------------------------------|
E|-------------------------------------------------------------------------|


VERSE 1

B
Came back from midnight shopping

E               F#
Saw your shadow on the curtain

B
I presume you let yourself in

E                   F#
With the key you've yet to return

E
You ask me how I've been

B
And if I've seen much snow

E
Skillfully avoiding things

     F#
That happened here a year ago

B
So, she's turned you out has she

E                 F#
Well, I can't say I'm surprised

B
After last year's festive fuss

  E               F#
I find it hard to sympathise

E
I slip through slush on Boxing Day

B
The shops were shut no films were on

E
You wander round to hers

    F#
And left a note to say you'd gone


CHORUS

B
Stood by the fireplace

Abm
You look ridiculous

E
You can't just come and stay here

F#
Like you did last Christmas

B             F#
You know what you did wrong


    E          F#
And Christmas, Christmas is cancelled this year

Riff 1


VERSE 2

B
The last thing I expected

E   F#
Was to come and find you knocking

B
e|-------------------------------------------------------------------------|
B|-------------------------------------------------------------------------|
G|----4-3-4-6-6-4--3--4----------------------------------------------------|
D|-------------------------------------------------------------------------|
A|-------------------------------------------------------------------------|
E|-------------------------------------------------------------------------|
At my door, waiting for a

     E              F#
e|------------------2------------------------------------------------------|
B|------------------2------------------------------------------------------|
G|----------1-------3------------------------------------------------------|
D|----2--2------2---4------------------------------------------------------|
A|-------------------------------------------------------------------------|
E|-------------------------------------------------------------------------|
    Treat in Christmas stockings (how shocking)

E
Don't take your jacket off

B
This is not your home

     E
Just raise your glass to two more people

F#
Spending Christmas Day alone


CHORUS

B
Stood by the fireplace

Abm
You look ridiculous

E
You can't just come and stay here

F#
Like you did last Christmas

B             F#
You know what you did wrong


    E          F#
And Christmas, Christmas is cancelled this year

Riff 1


MIDDLE 8

E
No Mum, don't worry about me

Em
I'll just have fish and chips for tea

F#
I'll watch the Queen and go to sleep

F#
I'll watch the Queen and go to sleep


CHORUS

B
Stood by the fireplace

Abm
You look ridiculous

E
You can't just come and stay here

F#
Like you did last Christmas

B        F#
You know what you did wrong

    E          F#
And Christmas, Christmas is cancelled this year

B        F#
You know what you did wrong

    E          F#
And Christmas, Christmas is cancelled this year


B                           Riff 1
No Mum, don't worry about me

E           F#
Just have a happy Christmas

B
No Mum, don't worry about me

E           F#
Just have a happy Christmas

Riff 1

F#                          B     F#  E
Christmas is cancelled this year

F#                          B     F#  E
Christmas is cancelled this year

F#                          B     F#  E
Christmas is cancelled this year

F#  B
Tap to rate this tab
# A B C D E F G H I J K L M N O P Q R S T U V W X Y Z