Guitaretab - guitar tabs
Song name
# A B C D E F G H I J K L M N O P Q R S T U V W X Y Z

The Long Blondes - Heaven Help The New Girl tab

Highlighted       Show chord diagrams
Artist: The Long Blondes    http://www.thelongblondes.co.uk/
Track: Heaven Help The New Girl
Tabber: Woodshed


VERSE 1

        G
No more nights in the flat

       F#m
In the flat above the pet shop

Em                          A
Hiding every picture of her boyfriend

G                    F#m
He never has to go behind my back again


      F   Em                 A 
Because I donít speak to him now


G
No more fights in the car,

       F#m              F
In the back of his car

  Em                             A
A car that never started and the rows they never stopped

G                    F#m
He never has to go behind my back again

          Em                 A
Because I donít speak to him now

I say


CHORUS

Bm               A
Heaven help the new girl

       G      F#m        Em     D            A
If she has to go through what I went through too



VERSE 2

            
Donít get me wrong

G
If you want someone

F#m
Who's gonna lead you on

Em
He's the one for you

A         Ab
Donít get me wrong

G             F#m
If you want someone

                      Em
Who's gonna treat you bad he's the man

        A
But who wants that anyway

e|-------------------------------------------------------------------------|
B|---2-2h3-2-----------5-----------7---------------------------------------|
G|------------2----------6------7--7---------------------------------------|
D|--------------2/7--7-------8---------------------------------------------|
A|-------------------------------------------------------------------------|
E|-------------------------------------------------------------------------|


CHORUS

Bm               A
Heaven help the new girl

       G      F#m        Em     D            A
If she has to go through what I went through too
[ Tab from: http://www.guitaretab.com/t/the-long-blondes/82938.html ]
Bm               A
Heaven help the new girl

       G      F#m        Em     D            A
If she has to go through what I went through too


Bm

Em Bm
So go

     A
Just go

                  D         F#m
Because you'll be never 19 again

      Bm                 A
And I thought I told you before

                 D  F#m
You donít need a boyfriend

   Bm
So go

     A
Just walk

           D                        F#m
It doesnít matter if its raining or dark

          G
And if by some strange stroke of luck

           F#m
I pick you up

            Em           A
Then we can drive to the country
Left to ourselves

    Bb
And (?)


CHORUS

Bm               A
Heaven help the new girl

       G      F#m        Em     D            A
If she has to go through what I went through too

Bm               A
Heaven help the new girl

       G      F#m        Em     D            A
If she has to go through what I went through too

Bm A G F#m Em D A

Bm               A
Heaven help the new girl

       G      F#m        Em     D            A
If she has to go through what I went through too

Bm               A
Heaven help the new girl

       G      F#m        Em     D            A
If she has to go through what I went through too

e|----------------------------------------7--------------------------------|
B|---2-2h3-2-------------5---------7------7--------------------------------|
G|------------2--------6---6-----7---7----7--------------------------------|
D|--------------2/7--7--------8-----------9--------------------------------|
A|-------------------------------------------------------------------------|
E|-------------------------------------------------------------------------|
Related for Heaven Help The New Girl tab