Song name
# A B C D E F G H I J K L M N O P Q R S T U V W X Y Z

The Long Blondes - A Knife For The Girls tab

Help us improve GuitareTab! Take a short survey!
Artist: The Long Blondes    http://www.thelongblondes.co.uk/
Track: A Knife For The Girls
Album: Someone to Drive You Home 
Tabber: Woodshed


INTRO

e|-------------------------------------------------------------------------|
B|----------9------------4-----------9-----------4-------------------------|
G|--------------9\---------4/-----------9\----------4/---------------------|
D|-----11------------6----------11------------6----------------------------|
A|-------------------------------------------------------------------------|
E|-------------------------------------------------------------------------|


 
e|---9---------------------------------------------------------------------|
B|---9----9----------------------------------------------------------------|
G|---9--------9------------------------------------------------------------|
D|--11---------------------------------------------------------------------|
A|-------------------------------------------------------------------------|
E|-------------------------------------------------------------------------|       
You gave me a chance at the Palais de Dance 

e|-----------4-------------------------------------------------------------|
B|-----------4----4--------------------------------------------------------|
G|-----------4--------4----------------------------------------------------|
D|-----------6-------------------------------------------------------------|
A|-------------------------------------------------------------------------|
E|-------------------------------------------------------------------------|
To prove I'm worth your time,


e|---9------------------------------------------------2---2--3-4-----------|
B|---9---9--------------------------------------------2---2--3-4-----------|
G|---9------9-----------------------------------------2---2----4-----------|
D|--11------------------------------------------------4---4--5-6-----------|
A|-------------------------------------------------------------------------|
E|-------------------------------------------------------------------------|
You gave me a chance to prove I'm more than just an also ran


e|-------------------------------------------------------------------------|
B|----------9----9---------9----9----------9----9--------------------------|
G|-------11---11--------11---11---------11---11------------9-9-8-9---------|
D|---11-------------10----------------9-------------9-8-8------------------|
A|-------------------------------------------------------------------------|
E|-------------------------------------------------------------------------|

e|-------------------------------------------------------------------------|
B|----------9----9---------9----9----------9----9--------------------------|
G|-------11---11--------11---11---------11---11------------9-9-8-9---------|
D|---11-------------10----------------9-------------9-8-8------------------|
A|-------------------------------------------------------------------------|
E|-------------------------------------------------------------------------|

e|-------------------------------------------------------------------------|
B|-----------9-9----------9-9--------------9-9-----------------------------|
G|-------11------11----11-----11-11-----11-----11-11----------9-9-8-9------|
D|---11-------------10---------------9------------------8-8----------------|
A|-------------------------------------------------------------------------|
E|-------------------------------------------------------------------------|

e|-------------------------------------------------------------------------|
B|--------9----9----------9----9-------------------------------------------|
G|-----11---11---11----11---11---11---11---11--11-11-11b12-12-12-12-12-----|
D|--11--------------10--------------9----9----9----------------------------|
A|-------------------------------------------------------------------------|
E|-------------------------------------------------------------------------|



e|-----------------------------------------------------4-3-----------------|
B|------9----9-------------------------------------4-4---------------------|
G|------------------11-11-9-11-10-9------3---3---4-------------------------|
D|---11---11---------------------------5---5---5---------------------------|
A|-------------------------------------------------------------------------|
E|-------------------------------------------------------------------------|
A knife for the girls who want to come home for just one night,

e|-----------------------------------------------------4-3-----------------|
B|------9----9-------------------------------------4-4---------------------|
G|------------------11-11-9-11-10-9------3---3---4-------------------------|
D|---11---11---------------------------5---5---5---------------------------|
A|-------------------------------------------------------------------------|
E|-------------------------------------------------------------------------|
A knife for the girls who never return your calls

e|-----------------------------------------------------4-3-----------------|
B|------9----9-------------------------------------4-4---------------------|
G|------------------11-11-9-11-10-9------3---3---4-------------------------|
D|---11---11---------------------------5---5---5---------------------------|
A|-------------------------------------------------------------------------|
E|-------------------------------------------------------------------------|
You gave me a chance at the Palais de Dance to prove I'm worth your time,

e|-------------------------------------------------------------------------|
B|------9----9-------------------------------------4-4-5-4-----------------|
G|------------------11-11-9-11-10-9------3---3---4-------------------------|
D|---11---11---------------------------5---5---5---------------------------|
A|-------------------------------------------------------------------------|
E|-------------------------------------------------------------------------|
You gave me a chance to prove I'm more than just an also ran

e|------2------4-------2--------4--------7---------------------------------|
B|------2------4-------2--------4--------7---------------------------------|
G|-------------------------------------------------------------------------|
D|---4----5--6----5--4-----5--6-----6/9------------------------------------|
A|-------------------------------------------------------------------------|
E|-------------------------------------------------------------------------|
Something happened to change your mind, something happened I don't know why,

e|-------------------------------------------------------------------------|
B|----------------9------------------4-------------------------------------|
G|------------------11-9------------------6-4------------------------------|
D|---------11---------------11\6-6-----------------------------------------|
A|-------------------------------------------------------------------------|
E|-------------------------------------------------------------------------|
And now you reach for my hand and you cut me again

e|----------2-------4-------7----------------------------------------------|
B|----------2-------4-------7----------------------------------------------|
G|-------------------------------------------------------------------------|
D|----6-5-4---4-5-6----6/9-------------------------------------------------|
A|-------------------------------------------------------------------------|
E|-------------------------------------------------------------------------|
You've got a knife for the girls and a knife for the man

e|-----------------------------------------2------4-----7------------------|
B|------9--------------------4-------------2------4-----7------------------|
G|-----------11-9---------------6-4----------------------------------------|
D|-11---------------11\6-6-----------6-5-4--4-5-6---6/9--------------------|
A|-------------------------------------------------------------------------|
E|-------------------------------------------------------------------------|
I don't mind seeing your face around, but we can never speak again
(no no no)

       C#m          Abm
e|------9-------------------------------------------------------------------|
B|------9-------------------------------------------------------------------|
G|------9--------------9-----------------------------------------------------|
D|-----11----9--11--------11-----------------------------------------------------|
A|-------------------------------------------------------------------------|
E|-------------------------------------------------------------------------|


e|-----------------------------------------------------4-3-----------------|
B|------9----9-------------------------------------4-4---------------------|
G|------------------11-11-9-11-10-9------3---3---4-------------------------|
D|---11---11---------------------------5---5---5---------------------------|
A|-------------------------------------------------------------------------|
E|-------------------------------------------------------------------------|
A knife for the men who've taken the heat off you this time,

e|-----------------------------------------------------4-3-----------------|
B|------9----9-------------------------------------4-4---------------------|
G|------------------11-11-9-11-10-9------3---3---4-------------------------|
D|---11---11---------------------------5---5---5---------------------------|
A|-------------------------------------------------------------------------|
E|-------------------------------------------------------------------------|
A knife for the men who keep you awake at night

e|-----------------------------------------------------4-3-----------------|
B|------9----9-------------------------------------4-4---------------------|
G|------------------11-11-9-11-10-9------3---3---4-------------------------|
D|---11---11---------------------------5---5---5---------------------------|
A|-------------------------------------------------------------------------|
E|-------------------------------------------------------------------------|
This could be the last time you could say for sure

e|-------------------------------------------------------------------------|
B|------9----9-------------------------------------------------------------|
G|------------------11--11--11--9-11-9-11b12-12-12-12-12-11-9--------------|
D|---11---11---------------------------------------------------------------|
A|-------------------------------------------------------------------------|
E|-------------------------------------------------------------------------|
You know I'm here if you need a girl



e|------2------4-------2--------4--------7---------------------------------|
B|------2------4-------2--------4--------7---------------------------------|
G|-------------------------------------------------------------------------|
D|---4----5--6----5--4-----5--6-----6/9------------------------------------|
A|-------------------------------------------------------------------------|
E|-------------------------------------------------------------------------|
Something happened to change your mind, something happened I don't know why,

e|-------------------------------------------------------------------------|
B|----------------9------------------4-------------------------------------|
G|------------------11-9------------------6-4------------------------------|
D|---------11---------------11\6-6-----------------------------------------|
A|-------------------------------------------------------------------------|
E|-------------------------------------------------------------------------|
And now you reach for my hand and you cut me again

e|----------2-------4-------7----------------------------------------------|
B|----------2-------4-------7----------------------------------------------|
G|-------------------------------------------------------------------------|
D|----6-5-4---4-5-6----6/9-------------------------------------------------|
A|-------------------------------------------------------------------------|
E|-------------------------------------------------------------------------|
You've got a knife for the girls and a knife for the man

e|-----------------------------------------2------4-----7------------------|
B|------9--------------------4-------------2------4-----7------------------|
G|-----------11-9---------------6-4----------------------------------------|
D|-11---------------11\6-6-----------6-5-4--4-5-6---6/9--------------------|
A|-------------------------------------------------------------------------|
E|-------------------------------------------------------------------------|
I don't mind seeing your face around, but we can never speak again


         C#m              E                           A
But in a back room in Harehills when you said I was a superstar,

     F#                 C#m             E  A F#
what did you mean, what did you mean?

e|-------9--------7--------------5------------2----------------------------|
B|---------9------9-----------------5------------2-------------------------|
G|-------------9-----9-----------------------------------------------------|
D|---11----------------------7------------4--------------------------------|
A|-------------------------------------------------------------------------|
E|-------------------------------------------------------------------------|
Harehills,            Harehills, 

e|-------9--------7--------------5------------2-------9--------------------|
B|---------9---------9--------------5-----------------9--------------------|
G|-------------9-----9--------------------------------9--------------------|
D|---11----------------------7------------4--------------------------------|
A|-------------------------------------------------------------------------|
E|-------------------------------------------------------------------------|
Harehills. Well in a back room in Harehills, what did you mean?




e|-------------------------------------------------------------------------|
B|----------9----9---------9----9----------9----9--------------------------|
G|-------11---11--------11---11---------11---11------------9-9-8-9---------|
D|---11-------------10----------------9-------------9-8-8------------------|
A|-------------------------------------------------------------------------|
E|-------------------------------------------------------------------------|

e|-------------------------------------------------------------------------|
B|----------9----9---------9----9----------9----9--------------------------|
G|-------11---11--------11---11---------11---11------------9-9-8-9---------|
D|---11-------------10----------------9-------------9-8-8------------------|
A|-------------------------------------------------------------------------|
E|-------------------------------------------------------------------------|

e|-------------------------------------------------------------------------|
B|-----------9-9----------9-9--------------9-9-----------------------------|
G|-------11------11----11-----11-11-----11-----11-11----------9-9-8-9------|
D|---11-------------10---------------9------------------8-8----------------|
A|-------------------------------------------------------------------------|
E|-------------------------------------------------------------------------|

e|-------------------------------------------------------------------------|
B|--------9----9----------9----9-------------------------------------------|
G|-----11---11---11----11---11---11---11---11--11-11-11b12-12-12-12-12-----|
D|--11--------------10--------------9----9----9----------------------------|
A|-------------------------------------------------------------------------|
E|-------------------------------------------------------------------------|




e|-------------------------------------------------------------------------|
B|----------------9------------------4-------------------------------------|
G|------------------11-9------------------6-4------------------------------|
D|---------11---------------11\6-6-----------------------------------------|
A|-------------------------------------------------------------------------|
E|-------------------------------------------------------------------------|
And now you reach for my hand and you cut me again

e|----------2-------4-------7----------------------------------------------|
B|----------2-------4-------7----------------------------------------------|
G|-------------------------------------------------------------------------|
D|----6-5-4---4-5-6----6/9-------------------------------------------------|
A|-------------------------------------------------------------------------|
E|-------------------------------------------------------------------------|
You've got a knife for the girls and a knife for the man

e|-----------------------------------------2------4-----7------------------|
B|------9--------------------4-------------2------4-----7------------------|
G|-----------11-9---------------6-4----------------------------------------|
D|-11---------------11\6-6-----------6-5-4--4-5-6---6/9--------------------|
A|-------------------------------------------------------------------------|
E|-------------------------------------------------------------------------|
I don't mind seeing your face around, but we can never speak again




e|-----------------------------------------2------4-----7------------------|
B|------9--------------------4-------------2------4-----7------------------|
G|-----------11-9---------------6-4----------------------------------------|
D|-11---------------11\6-6-----------6-5-4--4-5-6---6/9--------------------|
A|-------------------------------------------------------------------------|
E|-------------------------------------------------------------------------|
I got my souvenir, I got my souvenir

e|-----------------------------------------2------4-----7------------------|
B|------9--------------------4-------------2------4-----7------------------|
G|-----------11-9---------------6-4----------------------------------------|
D|-11---------------11\6-6-----------6-5-4--4-5-6---6/9--------------------|
A|-------------------------------------------------------------------------|
E|-------------------------------------------------------------------------|
Well, in a back room in Harehills I got my souvenir. My baby doll, 


e|-----------------------------------------2------4-----7------------------|
B|------9--------------------4-------------2------4-----7------------------|
G|-----------11-9---------------6-4----------------------------------------|
D|-11---------------11\6-6-----------6-5-4--4-5-6---6/9--------------------|
A|-------------------------------------------------------------------------|
E|-------------------------------------------------------------------------|
Don't go to London,

e|-----------------------------------------2------4-----7------------------|
B|------9--------------------4-------------2------4-----7------------------|
G|-----------11-9---------------6-4----------------------------------------|
D|-11---------------11\6-6-----------6-5-4--4-5-6---6/9--------------------|
A|-------------------------------------------------------------------------|
E|-------------------------------------------------------------------------|
Don't go to London, no no no

e|-----------------------------------------2------4-----7------------------|
B|------9--------------------4-------------2------4-----7------------------|
G|-----------11-9---------------6-4----------------------------------------|
D|-11---------------11\6-6-----------6-5-4--4-5-6---6/9--------------------|
A|-------------------------------------------------------------------------|
E|-------------------------------------------------------------------------|
Don't go to London,

Don't go to London, no no no
Don't go to London,
Don't go to London, no no no
Don't go to London,
Don't go to London, no no no
Related for A Knife For The Girls tab