Song name
# A B C D E F G H I J K L M N O P Q R S T U V W X Y Z

The Long Blondes - In The Company Of Women tab

Artist: The Long Blondes    http://www.thelongblondes.co.uk/
Track: In The Company of Women
Tabber: Woodshed



INTRO

Em 


VERSE 1

F     Em          C
Riff 1
e|-----0--------------------------------------------------------------------|
B|-----0--------------------------------------------------------------------|
G|-----0----------5-5--3--5-5-----------------------------------------------|
D|-----2----------5-5--3--5-5-----------------------------------------------|
A|-----2----------3---------------------------------------------------------|
E|-----0--------------------------------------------------------------------|
In the company of women

       F#m            C             Bm
e|-----2---2----------3-------------2------2--------------------------------|
B|-----2---2---------------5--------3------3--------------------------------|
G|-----2-----------------5-------------4------------------------------------|
D|-----4--------------------------------------------------------------------|
A|-----4--------------------------------------------------------------------|
E|-----2--------------------------------------------------------------------|
That's when I start to worry


Em                    C
Riff 1
What has she got that I might not

F#m        C Bm
I might not



VERSE 2

Em                C
Riff 1
In the company of women

  F#m           C    Bm
I must admit to being 

  Em                C
Riff 1
A little bit nervous

                 F#m      C      Bm
and a little bit scared   Oh yeah

   C               Bm
e|---------8-------7-------------------------------------------------------|
B|------------8----7-------------------------------------------------------|
G|--4/9------------7-------------------------------------------------------|
D|-------------------------------------------------------------------------|
A|-------------------------------------------------------------------------|
E|-------------------------------------------------------------------------|
     


CHORUS

         E            C#m
Riff 2
e|--------------------9----------------------------------------------------|
B|-------9------------9----------------------------------------------------|
G|-------9------------9------------9---11b12--11--9------------------------|
D|-------9------------11------11-------------------------------------------|
A|-------7------------11---------------------------------------------------|
E|-------0------------9----------------------------------------------------|
I don't need it spelling out to me

   F#m                   C     B
I know she's keeping him company

    E             C#m
Riff 1
And I can see the signs

   F#m               C           B     C           B
He likes her company better than mine, better than mine


Em  F


VERSE 3

Em                C
Riff 1
Teeth sponsored by Colgate

F#m                  C         Bm
Chatter sponsored by Desperate Housewives

Em                C
e|-------0------------------------------------------------------------------|
B|-------0------------------------------------------------------------------|
G|-------0--------5-5--3--5-5-----------------------------------------------|
D|----------------5-5--3--5-5-----------------------------------------------|
A|----------------3---------------------------------------------------------|
E|-----0--------------------------------------------------------------------|
I'm scared that the difference in our lives

    F#m                       Fm
e|---2---------------------------------------------------------------------|
B|---2--------------------------------1------------------------------------|
G|---2----------------------------1-------1--------------------------------|
D|---4------------------------3--------------------------------------------|
A|-------------------------------------------------------------------------|
E|-------------------------------------------------------------------------|
Will give her the start over me

    Em                 C
Riff 1
But you don't fall for that type, do you?

F#m                   C     B
That's what you told me

Em
You wouldn't lie to my now would you?


CHORUS

F       E                C#m
Riff 2
I don't need it spelling out to me

  F#m                    C     B
I know she's keeping him company

    E             C#m
Riff 2
And I can see the signs

   F#m               C           B    C           B
He likes her company better than mine, better than mine


Em  F Em  F


SOLO

     Em             C          B         Em           C     B
e|-------------------------------------------------------------------------|
B|-------------------------------------------------------------------------|
G|----/9--9--9--9---12--12--12--11-12-11--9--9--9--9--5---5-4--4-----------|
D|------------------------------------------------------5------------------|
A|-------------------------------------------------------------------------|
E|-------------------------------------------------------------------------|

   Em         C     Bm      Em         C       Bm
e|-------------------------------------------------------------------------|
B|-------------------------------------------------------------------------|
G|------------5-5----4------------------5-5-----5/7------------------------|
D|--2---2---------5-----4----2---2-----------5-----------------------------|
A|----2---2--------------------2---2---------------------------------------|
E|-------------------------------------------------------------------------|


      Em      C        Bm      C        Bm     C        Bm
e|-------7-----------------------------------------------------------------|
B|-------------------------------------------------------------------------|
G|----/9---9---------------------------------------------------------------|
D|-------------10-10-----9------10-10----9------10-10----9-----------------|
A|-------------------10----9----------10----9---------10---9---------------|
E|-------------------------------------------------------------------------|



CHORUS

        E                C#m
Riff 2
I don't need it spelling out to me

  F#m                    C     B
I know she's keeping him company

    E             C#m
Riff 2
And I can see the signs

   F#m               C           B   
He likes her company better than mine 


      E                 C#m
Riff 2
And I don't need telling twice

     C                B
He's happy and that's nice

       E               C#m
But I'm waiting in the wings for you to 

   F#m               C           B   Em    F
make your first mistake so watch out girl!
Tap to rate this tab
# A B C D E F G H I J K L M N O P Q R S T U V W X Y Z