Song name
# A B C D E F G H I J K L M N O P Q R S T U V W X Y Z

The Lordz - The Brooklyn Way tab

----------------------------------------------------------------------------
			 The brooklyn way - The lordz
----------------------------------------------------------------------------
Tabbed by:Zeek101
Email:zrob921@aol.com

Tuning:standard


There are only two guitar parts the first is the acoustic part in the backround wich is

     Cadd9   Dsus4
e|---x---------3------------------------------------------------------------|
B|---3---------3------------------------------------------------------------|
G|---0---------2------------------------------------------------------------|
D|---2---------0------------------------------------------------------------|
A|---3---------x------------------------------------------------------------|
E|---x---------x------------------------------------------------------------|

and electric guitar in the chorus

e|---------------------------------------------------------------------------|
B|---------------------------------------------------------------------------|
G|--9/13--11-11--9-9---------------------------------------------------------|
D|--x/x----x-x---x-x---------------------------------------------------------|
A|--7/11---9-9---7-7---------------------------------------------------------|
E|---------------------------------------------------------------------------|
Tap to rate this tab
# A B C D E F G H I J K L M N O P Q R S T U V W X Y Z