Guitaretab - guitar tabs
Song name
# A B C D E F G H I J K L M N O P Q R S T U V W X Y Z

The Love Bus - Free Your Mind tab

-------------------------------------------------------------------------------
			  FREE YOUR MIND - The Love Bus
-------------------------------------------------------------------------------
Tabbed by: Nikki221

Tuning: Standard
Chords used:
C#m - x46654
Bm -  x24432
D -   000232
A -   002220


INTRO:
e|---------------------------------------------------------------------------|
B|--------2---------2---------2---------2------------------------------------|
G|------2---2-----2---2-----2---2-----2---2----------------------------------|x2
D|----------------------------------0----------------------------------------|
A|----0---------2---------4--------------------------------------------------|
E|---------------------------------------------------------------------------|

VERSE:
e|---------------------------------------------------------------------------|
B|--------2---------2---------2---------2------------------------------------|
G|------2---2-----2---2-----2---2-----2---2----------------------------------|x4
D|----------------------------------0----------------------------------------|
A|----0---------2---------4--------------------------------------------------|
E|---------------------------------------------------------------------------|
[ Tab from: http://www.guitaretab.com/t/the-love-bus/191386.html ]
CHORUS:
   C#m              Bm           D
So someone come and give me a reason,
C#m               Bm              D
We all want a piece but at what cost?
C#m             Bm                       D
Free your soul, then thereís nothing to long for,
C#m                    Bm               D
The answer lies in the birth of whatís lost

2nd time:
C#m                      Bm        D
The answer lies in whats lost
A
Whats lost
D
Everyday is just the same

BACK TO MAIN RIFF

LYRICS:
In this world there are so many changes
In this world itís so hard to compete
In this world there are so many changes
Do you get enough, do you get enough for you

We are one, we are just the same
Yeah, everyoneís playing the same game
For some its illusions, for others its truth
Yeah, the reason we are here is just to reproduce so

Someone come and give me a reason
We all want a piece but at what cost
Breathe your soul, then thereís nothing to long for
The answer lies in the birth of whatís lost

Free your mind from what others think
Yeah, dream beyond the common order of things, yeah
Free your mind, yeah, free your mind.

So someone come and give me a reason,
We all want a piece but at what cost?
Free your soul, then thereís nothing to long for,
The answer lies in whatís lost

What's lost, every day is just the same
So dream on, dream on
What's lost, every day is just the same
So dream on, dream on, dream on
===============================================================================