Song name
# A B C D E F G H I J K L M N O P Q R S T U V W X Y Z

The Love Language - Lalita chords

Highlighted       Show chord diagrams
solo intro:
E||-------------------------|--------------------------|
B||-------------------------|--------------------------|
G||--------------9----------|--------------------------|
D||--5--5--5--7------6---7--|--------6--7--6-7--6------|
A||-------------------------|--------------------------|
E||-------------------------|--------------------------|
note: i don't know if the 6 in the solo is really 6 ou a bended 5.

intro chords:
C, G, F, F

verse: (most of the song goes on C, G, Am, F)

C        G              Am
  We've got one more to go
         F              C
And the last one was a mistake
     G
I'd pour you another
       Am                       F
But I think I heard the bottle break
                 C
On the bedroom floor
           G                Am
And we'll count the hours awake
          F                C
'Cause I see no sense in sleeping
G            Am           F
Only to wake up much too late
         Dm                        G
Oh, Anna Leigh, it's not that I'm scared, I've got to
Dm             G
  Wait for the air to call you

[refrain]
C   G   Am            F
 Lalita,   don't you hate these kisses?
C                  G
 I know that we're not in
Am              F                      C
  But we're in love with everyone that is
       G      Am      F
We're talking   tiny conversations
C              G
 Like they're harmless
Am              F
  Oh, don't you know that I know it's a sin?

[intro]

We've got one more to go
An the last one nearly killed me
I'm talking to the devil but
I think I heard an angel sing (la la la)
And this year has just begun
So don't count your blessings yet
Let's take a walk, but I think we'd better watch our step
         Dm          G
Oh, Anna Leigh, lay down beside me
C               F
 I'm in need of rest
Dm                  G
  I'm looking for a hand to guide me
C                  F
 Far away from the rest
Dm               G
  Are we moving too fast?

Lalita, don't you hate these kisses?
I know that we're not in
But we're in love with everyone that is
I'm making tiny conversations
And though they're charmless
I'm hoping that they'll bring you back again

[intro]
the variation of the intro solo
the chords can be:

    C            G            Am  G(bass) F  E(bass)  C
E||-------------------------|----------------------|-------------------||
B||-------------------------|----------------------|-------------------||
G||--------------9----------|----------------------|-------------------||
D||--5--5--5--7------6---7--|--7----5----3----2----|-------------------||
A||-------------------------|----------------------|--3----------------||
E||-------------------------|----------------------|-------------------||
Tap to rate this tab
 
# A B C D E F G H I J K L M N O P Q R S T U V W X Y Z