Guitaretab - guitar tabs
Song name
# A B C D E F G H I J K L M N O P Q R S T U V W X Y Z

The Loved Ones - Arsenic tab

The Loved Ones
Arsenic


The tab is in the order that the song is played, just follow along. First tab by the 
so rate it please. Enjoy!

Legend: ~ (Held Note); h (Hammer-On); p (Pull-Off); . (Palm Mute);          ^ (Bend); 
(Play Note 8 or 16 Times); / (Slide)


Intro

E-------------------------------------------------------------------|
B-------------------------------------------------------------------|
G------2----2------------2-----2--------2-----2--------5------------|
D-0-3---0-3--3-0-------3-----3--------3-----3---3-0----5-x16--------|
A------------------1-1----1----------------------------3------0-2-3-|
E----------------------------------1------1-------------------------|X2


Verse

E--------------------------------------|
B--------------------------------------|
G-7---------3-------------------5------|
D-7--x16----3--x16----3---------5--x16-|
A-5---------1---------3--x16----3------|
E---------------------1----------------|X2


Chorus

E----------------------|
B----------------------|
G-3-------------5------|
D-3-x8--3------5--x16-|
A-1------3-x8--3------|
E--------1-------------|X2

|-------------------------------------------------------|
|-------------------------------------------------------|
|-3-------------7------5------33333330------------5-----|
|-3-x8--3------7-x8--5--x8-33333330--33333333--5x16-|
|-1------3-x8--5------3------11111110--33333333--3-----|
|--------1------------------------------11111111--------|
                              .....     .....

E---------------------------|
B---------------------------|
G------------2----2----2^~~-|
D--------0-3--0-3--0-3------|
A-0-2-3---------------------|
E---------------------------|


Verse

E--------------------------------------|
B--------------------------------------|
G-7---------3-------------------5------|
D-7--x16----3--x16----3---------5--x16-|
A-5---------1---------3--x16----3------|
E---------------------1----------------|X2


Chorus
[ Tab from: http://www.guitaretab.com/t/the-loved-ones/91640.html ]
E----------------------|
B----------------------|
G-3-------------5------|
D-3-x8--3------5--x16-|
A-1------3-x8--3------|
E--------1-------------|X2

|-------------------------------------------------------|
|-------------------------------------------------------|
|-3-------------7------5------33333330------------5-----|
|-3-x8--3------7-x8--5--x8-33333330--33333333--5x16-|
|-1------3-x8--5------3------11111110--33333333--3-----|
|--------1------------------------------11111111--------|
                              .....     .....


Interlude

E--------------------------|  |-------------------------------------|
B--------------------------|  |-------------------------------------|
G-5~~~------2h3-5~---------|  |--7-x16-3-x16--10-x16--5-x16--------|
D-5~~~-5/3---------2h3p2---|  |--5------1------8-------3------0h3/5-|
A-3~~~-5/3---------------3-|  |-------------------------------------|
E------3/1-----------------|  |-------------------------------------|X2
                                 .      .      .       .    (Vary PM)


Chorus

E----------------------|
B----------------------|
G-3-------------5------|
D-3-x8--3------5--x16-|
A-1------3-x8--3------|
E--------1-------------|X2

|--------------------------------------------------------------|
|--------------------------------------------------------------|
|-3-------------7------5------33333330------------5------------|
|-3-x8--3------7-x8--5--x8-33333330--33333333--5x16--------|
|-1------3-x8--5------3------11111110--33333333--3------0-2-3-|
|--------1------------------------------11111111---------------|
                              .....     .....


Outro

E-------------------------------------------------------------------|
B-------------------------------------------------------------------|
G------2----2------------2-----2--------2-----2--------5------------|
D-0-3---0-3--3-0-------3-----3--------3-----3---3-0----5-x16--------|
A------------------1-1----1----------------------------3------0-2-3-|
E----------------------------------1------1-------------------------|

E--------------------------|
B--------------------------|
G-7~~~-3~~~----------------|
D-7~~~-3~~~-3~~~~~~~~~~~~~~|
A-5~~~-1~~~-3~~~~~~~~~~~~~~|
E-----------1~~~~~~~~~~~~~~|
Related for Arsenic tab