Song name
# A B C D E F G H I J K L M N O P Q R S T U V W X Y Z

The Low Life - Sheen tab

The Low Life is a pimpin' band and it sucks they broke up. But Sheen is a hot song, and
here is my rough tablature for it. i would imagine its not 100% accuracy, but its good
enough

BASS INTRO: tabbed for guitar, sounds the same

|---------------------|
|---------------------|
|---------------------| repeats throughout the song
|---------------------|
|-----1---3/5-3-3h5---|
|-1h3---3-----------1-|

INTRO/VERSE: chords

|-1----------------1--|
|-1-----6----6-----1--|
|-2--5--7----7--5--2--|
|-3--5--7----7--5--3--|
|-3--3--5----5--3--3--|
|-1----------------1--|

VERSE/CHORUS: riff

|-8-------------------|
|---8-6-8-------------|
|---------------------|
|---------------------|
|---------------------|
|---------------------|

CHORUS: chords (these 3 chords make up the entire song)

|--------1--|
|--6-----1--|
|--7--5--2--| repeated
|--7--5--3--|
|--5--3--3--|
|--------1--|


BREAKDOWN: riff

|-5---3-5555----------|
|---3-----------------|
|---------------------|
|---------------------|
|---------------------|
|---------------------|


the only thing i dont have is that riff in the intro, so you can figure it out if you
really want it, if i fool around and get it, then i'll make a change...i think thats
the whole song. so enjoy it. first song i tabbed myself and posted, wahoo! play it
and play it loud!
Tap to rate this tab
 
# A B C D E F G H I J K L M N O P Q R S T U V W X Y Z