Song name
# A B C D E F G H I J K L M N O P Q R S T U V W X Y Z

The Low Life - Snuffy tab

Help us improve GuitareTab! Take a short survey!
Standard Tuning.  I wish they were still together.

Let me know if you find anything wrong...

snuffy:

Here's the intro (some of it)
e------------------------------------------------|
b------------------------------------------------|
g--------3h4-------------------------------------|
d--------2--------5----------6-----6-------------|
a--------2-----3-----3--3/4-----4----------------|
E--0--0------------------------------------------|

e--------2h4---4-------------------------------------|
b--------2-----2-------------------------------------|
g----------------------------------------------------|
d--------------------6----6-----4-----2--------------|
a-----------------4----4-----2-----0-----------------|
E--2--2----------------------------------------------|

Chorus

e---------------------------------------0----------|
b---------------------------------------1----------|
g--------2--------4---------------------0----------|
d--------2--------4----------2----------2----------|
a--0--0-----2--2-------------2---3--3--3-----------|
E----------------------0--0--0---------------------|

e---------------------------------------------|
b---------------------------------------------|
g---------2------4-----4----------------------|
d---------2------4-----4----------------------|
a--0--0---0---2-----2-------------------------|
E---------------------------------------------|

End
Am, G, Em, C
Related for Snuffy tab