Song name
# A B C D E F G H I J K L M N O P Q R S T U V W X Y Z

The Lyrical Madmen - Fall Of Babylon tab

-----------------------------------------------------------------------------
		     FALL OF BABYLON - The Lyrical Madmen
-----------------------------------------------------------------------------
Tabbed by: Bake
Email: shortguy_28@hotmail.com

Tuning: Standard

A great song off the new album "Stare into Space" from the Lyrical Madmen - a
hot reggae rock band bursting onto the Sydney scene. Expect to hear plenty
more from these guys in the future. 
http://thelyricalmadmen.com/txp/

Intro (let ring)

e|----6-------4-------4-------3---------------------------------------------|
B|--6---6---6---6---4---4---4---4-------------------------------------------|
G|--------------------------------------------------------------------------|
D|--------------------------------------------------------------------------|
A|--------------------------------------------------------------------------|
E|--------------------------------------------------------------------------|

Verse riff
Mash doesn't play a lot of guitar here - you can play either full chords or
just the top half of the chord on the off beat to make it sound more reggae.

    A#maj  C#maj  G#maj  D#maj
e|--6-6-6--4-4-4--4-4-4--6-6-6----------------------------------------------|
B|--6-6-6--6-6-6--4-4-4--8-8-8----------------------------------------------|
G|--7-7-7--6-6-6--5-5-5--8-8-8----------------------------------------------|
D|--------------------------------------------------------------------------|
A|--------------------------------------------------------------------------|
E|--------------------------------------------------------------------------|
The people have the rules...

Chorus
Again, the horns rather than the guitar fill out the sound here, but these
are the chords.

    C# G# A#
e|--4--4--6-----------------------------------------------------------------|
B|--6--4--6-----------------------------------------------------------------|
G|--6--5--7-----------------------------------------------------------------|
D|--6--6--8-----------------------------------------------------------------|
A|--4--6--8-----------------------------------------------------------------|
E|-----4--6-----------------------------------------------------------------|
And the people get lead on...

	    G# D# A#
e|----------4--6--6---------------------------------------------------------|
B|----------4--8--6---------------------------------------------------------|
G|----------5--8--7---------------------------------------------------------|
D|----------6--8--8---------------------------------------------------------|
A|----------6--6--8---------------------------------------------------------|
E|----------4-----6---------------------------------------------------------|
This is the fall of Babylon

Interlude (let ring)

e|----6-------4-------4-------3---------------------------------------------|
B|--6---6---6---6---4---4---4---4-------------------------------------------|
G|--------------------------------------------------------------------------|
D|--------------------------------------------------------------------------|
A|--------------------------------------------------------------------------|
E|--------------------------------------------------------------------------|
La la la la etc...

| /  slide up
| \  slide down
| h  hammer-on
| p  pull-off
| ~  vibrato
| +  harmonic
| x  Mute note
=============================================================================
Tap to rate this tab
# A B C D E F G H I J K L M N O P Q R S T U V W X Y Z