Song name
# A B C D E F G H I J K L M N O P Q R S T U V W X Y Z

The M Machine - Tiny Anthem chords

Highlighted       Show chord diagrams
The M Machine - Tiny Anthem


Bb - 113331
Cm - 335543
Gm - 355333
Eb - 668886


Bb              Cm
     Here I go again
                        Gm
Better off this way for now
     Eb
So let go
Bb              Cm
 And here I go again
                        Gm
Better off this way for now
     Eb
So let go

Bb          Cm              Gm
      Hey! Dragging me that way
    Eb                          Bb
But I can't feel your eyes upon my skin
            Cm            Gm
      Hey! Begging me to stay here
    Eb                                Bb
But I can't stop the rain from coming in

    Cm                                Gm
No, I can't stop the rain from coming in.
    Eb
No, I can't stop the rain from coming...

Bb Cm Gm Eb


EXTRA:
The intro:

E|--------------------------------|
B|--------------------------------|
G|--3---3---5---5-----------8---8-|
D|-3---3---5---5----5---5--8---8--|  
A|1---1---3---3----5---5--6---6---|
E|----------------3---3-----------|

The keyboard:

E|--------------------------------|--------------------------------|
B|----------------3-----------1-3-|----------------3-----------1---|
G|3-------------------------------|3-------------------------------|
D|------------3-------------------|------------3-------------------|  
A|--------------------------------|--------------------------------|
E|--------------------------------|--------------------------------|

http://www.the-m-machine.com/
Tap to rate this tab
# A B C D E F G H I J K L M N O P Q R S T U V W X Y Z