Guitaretab - guitar tabs
Song name
# A B C D E F G H I J K L M N O P Q R S T U V W X Y Z

The Maccabees - Bag Of Bones tab

The Maccabees last song on there new album "Wall Of Arms" 
I have tabbed 3 different parts of the song but its pretty easy to 
put together!

Hugo White

e|-------------------19------------------19----------------19-----|
B|----19-19-17-19-17-----19-19-17-19-17-----19-19-17-19-17--------|    
G|----------------------------------------------------------------|     
D|----------------------------------------------------------------|       
A|----------------------------------------------------------------|     
E|----------------------------------------------------------------|

Felix White
[ Tab from: http://www.guitaretab.com/t/the-maccabees/185569.html ]
e|----------------------------------------------------------------|
B|----------------------------------------------------------------|    
G|----------------------------------------------------------------|     
D|----19-16-16-14-14----------19-16-16-14-14----------14----------|       
A|-------------------16-16-12----------------16-16-12-------------|     
E|----------------------------------------------------------------|

e|----------------------------------------------------------------|
B|----------------------------------------------------------------|    
G|----------------------------------------------------------------|     
D|----9/14---19-16-16-14-14----------19-16-16-14-14----------14---|       
A|----7/12------------------16-16-12----------------16-16-12------|     
E|----------------------------------------------------------------|

Orlando Weeks

e|----------------------------------------------------------------|
B|---------------------------------------------------5------------|    
G|---6---6---6-------6---6---6---------6---6---6------6---6---6---|     
D|-7---7---7---7----7---7---7---7----7---7---7---7------7---7---7-|       
A|----------------------------------------------------------------|     
E|----------------------------------------------------------------|

Hope this helps! x any queries please dont hesitate to email me
jackjamieson@btinternet.com
Related for Bag Of Bones tab
Advertisement will be closed in 10 seconds