Song name
# A B C D E F G H I J K L M N O P Q R S T U V W X Y Z

The Maccabees - No Kind Words tab

I think its time for the new album tabs so heres the first :)


-------------------------------------------------------------------------------
			     No Kind Words - The Maccabees
-------------------------------------------------------------------------------
Tabbed by: Georgeyy
Email: George_cochrane@hotmail.com

Tuning: Standard

Main Verse:
Rhythm Guitar/Bass

Dear friend of mine has...               Of the future... Alone, alone, alone....
e|------------------------------------------------------------------------------|
B|------------------------------------------------------------------------------|
G|------------------------------------------------------------------------------|
D|------------------------------------------------------------------------------|
A|------------------------------------------------------------------------------|
E|--5-5-5-5-5-5-5-5-5-(playing semi-quavers)--1-1-1-1-1-1-1-1-1-1-1-1-1-1-1-----|


Prechorus/Fill between verses

e|------------------------------------------------------------------------------|
B|------------------------------------------------------------------------------|
G|------------------------------------------------------------------------------|
D|------------------------------------------------------------------------------|
A|------------------------------------------------------------------------------|
E|--5-5-5-5-5-5-5-5-/-8-8-8-8-/-12-12-12-12-------------------------------------|

Second Verse Rhythm guitar
e|------------------------------------------------------------------------------|
B|------------------------------------------------------------------------------|
G|--------(i.e a bit heavier)---------------------------------------------------|
D|------------------------------------------------------------------------------|
A|--7-7-7-7-7-7-7-7-7-7-7-7-7-7-7-7-7-7-7---------------------------------------|
E|--5-5-5-5-5-5-5-5-5-5-5-5-5-5-5-5-5-5-5--1-1-1-1-1-1-1-1-1-1-1-1-1-1----------|

Lead guitar in verses
At 'dear friend of mine'        Then at 'alone alone alone'
e|--------(12)------------------13----------------------------------------------|
B|-----13------------------------13---------------------------------------------|
G|---14---------------------------14--------------------------------------------|
D|------------------------------------------------------------------------------|
A|------------------------------------------------------------------------------|
E|------------------------------------------------------------------------------|

Pre-verse Lead part
e|--------------12-----------------13----12------------------------13-------------|
B|------13---------13------13----------------(repeat)---------------13------------|
G|--14-----14---------14-------14-----------------------------------14------------|
D|--------------------------------------------------------------------------------|
A|--------------------------------------------------------------------------------|
E|--------------------------------------------------------------------------------|


First chorus part (just bass i think but could be undistorted rhythm too)
e|---------------------------------------------------------------------------|
B|---------------------------------------------------------------------------|
G|---------------------------------------------------------------------------|
D|-----7---------7---------7--------7---------12-------12------12------12----|
A|---7---7-----7---7-----7---7----7---7-----12--12---12--12--12--12--12--12--|
E|--5--------5---------5--------5---------10-------10------10------10--------|

Then that accapella bit before...

Chorus part 2
Felix on rhythym is just hitting each chord i think
e|---------------------------------------------------------------------------|
B|---------------------------------------------------------------------------|
G|---5-----------------5-----------------2-----------------2-----------------|
D|---7-----------------7-----------------3-----------------3-----------------|
A|---7-----------------7-----------------3-----------------3-----------------|
E|---5-----------------5-----------------1-----------------1-----------------|
Whilst Hugo does a bit of
e|-----------12-(x4)-------------------------------------------------------------------------|
B|-------13-(x4)---------Repeat this for each time felix hits the chord (ie every two bars)--|
G|---14-(x8)---------------------------------------------------------------------------------|
D|-------------------------------------------------------------------------------------------|
A|-------------------------------------------------------------------------------------------|
E|-------------------------------------------------------------------------------------------|

(Bass is playing the intro/verse riff)

Felix carries on hitting them chords whilst Hugo moves onto

e|-0-0-5-0-0-7-0-0-10-0-0-1-1-1-0-0------------------------------------------|
B|---------------------------------------------------------------------------|
G|---------------------------------------------------------------------------|
D|---------------------------------------------------------------------------|
A|---------------------------------------------------------------------------|
E|---------------------------------------------------------------------------|

Which he repeats for the rest of the song (note he plays an octave up version 
so for that try using 17 on the B string instead of 12 on the e string)

 Enjoyyy

| /  slide up
| \  slide down
| h  hammer-on
| p  pull-off
| ~  vibrato
| +  harmonic
| x  Mute note
===============================================================================
Tap to rate this tab
# A B C D E F G H I J K L M N O P Q R S T U V W X Y Z