Song name
# A B C D E F G H I J K L M N O P Q R S T U V W X Y Z

The Maccabees - Can You Give It tab

This is another great song from The Maccabees Album "Wall Of Arms" Called can you give 
Dont know the whole song but, there are parts that you can work with here...

Orlando Weeks
(these are the barre chords that he plays, quite an easy strumming pattern to work out)
e|---8----7----5----3----------|
B|---8----7----5----3----------|
G|---9----8----6----4----------|
D|---10---9----7----5----------|
A|---10---9----7----5----------|
E|---8----7----5----3----------|

and when he sings "Can you give ittt!!!!!!!" he plays just...
e|-----8------------------|
B|-----8------------------|
G|-----9------------------|
D|-----10-----------------|
A|-----10-----------------|
E|-----8------------------|


Hugo White
e|-----------------------19--17----------------------19--17-------|
B|-----17----15----17--------------17----15----17-----------------|
G|----------------------------------------------------------------|
D|----------------------------------------------------------------|
A|----------------------------------------------------------------|
E|----------------------------------------------------------------|

When Orlando sings "Slow rolling bolder rocks, stone, pebble, grit, sand..."
this is played...

e|----------------------------------------------------------------|
B|----------------------------------------------------------------|
G|----------------------------------------------------------------|
D|--10-10-10-10-9-7-9-7-5-7-5-4-5-4-2-4-5-------------------------|
A|----------------------------------------------------------------|
E|----------------------------------------------------------------|

Hope this helps!
Tap to rate this tab
# A B C D E F G H I J K L M N O P Q R S T U V W X Y Z