Guitaretab - guitar tabs
Song name
# A B C D E F G H I J K L M N O P Q R S T U V W X Y Z

The Maccabees - Love You Better tab

Thought someone should get the two singles from the
new album up so heres the second :)


-------------------------------------------------------------------------------
			     LOVE YOU BETTER - The Maccabees
-------------------------------------------------------------------------------
Tabbed by: Georgeyy
Email: george_cochrane@hotmail.com

Tuning: EADGBe (Standard Tuning)

-(Orlando) Is the singer who only plays a few little bits
-(Felix) Is the rhythm guitarist for this song at least
-(Hugo) Is the lead guitarist for this song

If you only have two guitarists it should be too hard to get one guitarist or the other to fill in
Orlando's parts. They aren't too hard.

Intro

(Orlando)  This is quite gently strummed and palm muted but really fast
e|------------------------------------------------------------------------|
B|------------------------------------------------------------------------|
G|---16-16-16-16-16-16-16-16-16-16-16-16-16-16-16-16-16-16----------------|
D|---17-17-17-17-17-17-17-17-17-17-17-17-17-17-17-17-17-17----------------|
A|---17-17-17-17-17-17-17-17-17-17-17-17-17-17-17-17-17-17----------------|
E|---15-15-15-15-15-15-15-15-15-15-15-15-15-15-15-15-15-15----------------|


(Felix)
e|-------------------------------------------------------------------------|
B|-------------------------------------------------------------------------|
G|---19-/-16--16-----------------------------------------------------------|
D|--------------------(Let That last octave ring)--------------------------|
A|---17-/-14--14-----------------------------------------------------------|
E|-------------------------------------------------------------------------|

Then…
(Orlando)  Still palm muted  (This might go on through the whole song. Your choice)
e|------------------------------------------------------------------------|
B|------------------------------------------------------------------------|
G|---16-16-16-16-16-16-16-16-16-16-16-16-16-16-16-16-16-16----------------|
D|---17-17-17-17-17-17-17-17-17-17-17-17-17-17-17-17-17-17----------------|
A|---17-17-17-17-17-17-17-17-17-17-17-17-17-17-17-17-17-17----------------|
E|---15-15-15-15-15-15-15-15-15-15-15-15-15-15-15-15-15-15----------------|
											     X2
(Hugo)
e|------------------------------------------------------------------------|
B|------------------------------------------------------------------------|
G|---19-19-19--16-16-16--16-16-16-----------------------------------------|
D|------------------------------------17-17-17--19-19-19--19-19-19--------|
A|---17-17-17--14-14-14--14-14-14-----------------------------------------|
E|------------------------------------15-15-15--17-17-17--17-17-17--------|


Verse

(Felix)
e|------------------------------------------------------------------------|
B|-----------------------8-------------------------8----------------------|
G|-----------------7------------------------7-----------------------------|
D|----5------------------------5------------------------------------------|
A|------------------------------------------------------------------------|
E|------------------------------------------------------------------------|
											      X4
(Hugo)
e|------------------------------------------------------------------------|
B|----20-20-20-20-20-20-20-20-20-20-20-20-17-17-15-15---------------------|
G|-----x--x--x--x--x--x--x--x--x--x--x--x--x--x--x--x---------------------|
D|----17-17-17-17-17-17-17-17-17-17-17-17-14-14-12-12---------------------|
A|-----x--x--x--x--x--x--x--x--x--x--x--x--x--x--x--x---------------------|
E|----15-15-15-15-15-15-15-15-15-15-15-15-12-12-10-10---------------------|
      (If You Can’t Reach The Bottom Notes Then Don’t Worry)


Chorus (Its Quite Hard To Hear Exactly What They Play So This Is One Way)

(Felix)
e|------------------------------------------------------------------------|
B|------------------------------------------------------------------------|
G|------------------------------------------------------------------------|
D|--7---------------------------------------------------------------------|
A|------------------------------------------------------------------------|
E|------------------------------------------------------------------------|
  I will love you better 		I will love you better 
(Hugo)
e|------------------------------------------------------------------------|
B|--10--------------------------------------------------------------------|
G|------------------------------------------------------------------------|
D|--10--------------------------------------------------------------------|
A|------------------------------------------------------------------------|
E|------------------------------------------------------------------------|
[ Tab from: http://www.guitaretab.com/t/the-maccabees/186855.html ]
(Felix)
e|------------------------------------------------------------------------|
B|------------------------------------------------------------------------|
G|------------------------------------------------------------------------|
D|---5---7--------------7--------2-----------------2----------------------|
A|------------------------------------------------------------------------|
E|------------------------------------------------------------------------|
I will love you better   I will love you better   I will love you better
(Hugo)
e|--------------8-----------------------3---------------------------------|
B|---8----10-----------10--------5-----------------5----------------------|
G|------------------------------------------------------------------------|
D|---10---10--------------------------------------------------------------|
A|------------------------------------------------------------------------|
E|------------------------------------------------------------------------|

(Felix)
e|------------------------------------------------------------------------|
B|-----------------------8-------------------------8----------------------|
G|-----------------7------------------------7-----------------------------|
D|----5------------------------5------------------------------------------|
A|------------------------------------------------------------------------|
E|------------------------------------------------------------------------|

(Hugo)
e|------------------------------------------------------------------------|
B|------------------------------------------------------------------------|
G|---19-19-19--16-16-16--16-16-16-----------------------------------------|
D|------------------------------------17-17-17--19-19-19--19-19-19--------|
A|---17-17-17--14-14-14--14-14-14-----------------------------------------|
E|------------------------------------15-15-15--17-17-17--17-17-17--------|


REPEAT THE “I WILL LOVE YOU BETTER” PARTS
Then 

1st Chorus Ending
(Orlando)  This is quite gently strummed and palm muted but really fast
e|------------------------------------------------------------------------|
B|------------------------------------------------------------------------|
G|---16-16-16-16-16-16-16-16-16-16-16-16-16-16-16-16-16-16----------------|
D|---17-17-17-17-17-17-17-17-17-17-17-17-17-17-17-17-17-17----------------|
A|---17-17-17-17-17-17-17-17-17-17-17-17-17-17-17-17-17-17----------------|
E|---15-15-15-15-15-15-15-15-15-15-15-15-15-15-15-15-15-15----------------|

Then VERSE is repeated followed by another CHORUS
but with this ending instead of the above

(Felix) Quite a fun part ☺
e|-----------------------------------------------0h2h3--------------------|
B|--0h2h3-0h2h3-0h2h3-0h2h3-0h2h3-0h2h3-0h2h3-----------------------------|
G|------------------------------------------------------------------------|
D|-------------------------------------------Note Every-3rd and 4th ------|
A|-------------------------------------------Time He Plays It He Doesn’t--|
E|-------------------------------------------Go Up A String---------------|

(Hugo)
e|--10--10----9---9---7---------------------------------------------------|
B|---------------------------10------8-----8-----7------------------------|
G|------------------------------------------------------------------------|
D|------------------------------------------------------------------------|
A|------------------------------------------------------------------------|
E|------------------------------------------------------------------------|
By the 9th time through, Hugo is doing octaves (I think he has a new octave pedal)
Then He Cuts Out When The Trumpets start


Outro

(Felix)
e|------------------------------------------------------------------------|
B|-----------------------8-------------------------8----------------------|
G|-----------------7------------------------7-----------------------------|
D|----5------------------------5------------------------------------------|
A|------------------------------------------------------------------------|
E|------------------------------------------------------------------------|

(Hugo)
e|------------------------------------------------------------------------|
B|------------------------------------------------------------------------|
G|---19-19-19--16-16-16--16-16-16-----------------------------------------|
D|------------------------------------17-17-17--19-19-19--19-19-19--------|
A|---17-17-17--14-14-14--14-14-14-----------------------------------------|
E|------------------------------------15-15-15--17-17-17--17-17-17--------|

Repeated twice then 

(Felix)
e|------------------------------------------------------------------------|
B|------------------------------------------------------------------------|
G|------------------------------------------------------------------------|
D|------------------------------------------------------------------------|
A|------------------------------------------------------------------------|
E|---5--------------------------------------------------------------------|

(Hugo)
e|------------------------------------------------------------------------|
B|------------------------------------------------------------------------|
G|---7--------------------------------------------------------------------|
D|---5--------------------------------------------------------------------|
A|------------------------------------------------------------------------|
E|------------------------------------------------------------------------|

Enjoy and post any corrections ☺


| /  slide up
| \  slide down
| h  hammer-on
| p  pull-off
| ~  vibrato
| +  harmonic
| x  Mute note
===================

Related for Love You Better tab
Advertisement will be closed in 10 seconds