Song name
# A B C D E F G H I J K L M N O P Q R S T U V W X Y Z

The Maccabees - Colour It In tab

Heyy! 
This is an awesome song, really challenging and i proper don't recommend for 
beginners. Its basically fast picking ftw :L

Anyways, here it is... :)

Natural harmonics( medium to heavy distortion )

------------------|
--<12>------------|
--<12>------------|
--<12>------------|
------------------|
------------------|

   Am
------------------|
---13-------------| REALLY fast (16ths)
---14-------------|
---14-------------| X4 bars
------------------|
------------------|

Octaves (this time on 8ths)
------------------------------------------------------------------|
---10------13-----12-----15-----12-\--10----12--\--10----12-------|
---x---x4--x--x4--x--x4--x--x2--x--x6-x--x2-x--x6--x--x2-x--x2----|
---7-------10-----9------12-----9--\--7-----9---\--7-----9--------|
------------------------------------------------------------------|
------------------------------------------------------------------|

and then...
         
--12~----18-17-15-13-----------9-~-|   
--13~----18-17-15-13----12-----10~-|   Bend last chord
--14~-------------------12---------|
------------------------12---------|
-----------------------------------|
-----------------------------------|

all that again and then break on the last chord into verse which is this...

Verse

 Am   D
-12---10------------------|
-13---10------------------|
-14---11----So many times-|
------12------------------|
--------------------------|
--------------------------|

Chorus

'Bright young things...'
 Am    D
-------14-<--------------------|
-13----15-<-Fast again (16ths)-|
-14----14-<--------------------|
-14----------------------------|
-------------------------------|
-------------------------------|

End

-10---8---7---8-----------------|
-x----x---x---x--so many times--|
-7----5---4---5-----------------|
--------------------------------|
--------------------------------|
--------------------------------|

And the last chord...

-10-~~~-----------|
-9--~~~-----------|
-x--~~~-----------|
-x--~~~-----------|
-7--~~~-----------|
-0--~~~-----------|

And your sorted :) 

Enjoy!!
-------------------------------
Tap to rate this tab
# A B C D E F G H I J K L M N O P Q R S T U V W X Y Z