Song name
# A B C D E F G H I J K L M N O P Q R S T U V W X Y Z

The Maccabees - Tissue Shoulders tab

-------------------------------------------------------------------------------
			     Tissue Shoulders - The Maccabees
-------------------------------------------------------------------------------
Tabbed by: Carl E.

Tuning: Standard

I'm pretty much just going ot tab out Hugo's part and then include what Felix plays 
the first part of each verse. Contrary to popular the belief the opening riff of the song is 
played on bass not guitar.

[Intro Hugo]
e|---------------------------------------------------------------------------|
B|-14------------------------------------------------------------------------|
G|-13----16------------------------------------------------------------------|
D|-14----14--------x2--------------------------------------------------------|
A|-------------19------------------------------------------------------------|
E|--------------0------------------------------------------------------------|

[Verse Parts 1&3 Felix](play twice first time and once the second time)
e|---------------------------------------------------------------------------|
B|---------------------------------------------------------------------------|
G|---------9-------------6---------------------------------------------------|
D|-----6-----9---6---6-----9-6-----------------------------------------------|
A|---7---7-----7---7---7-----------------------------------------------------|
E|-0-------------------------------------------------------------------------|

[Verse Parts Hugo]
e|-----------------------------------------5---------------------------------|
B|-----------------------------------------5-----------12-12-12---------14-12|
G|-11-11-9-9-8-9-8-6-6-6-6-11-11-9-9-8-8---6----13--------------13---13------|
D|-----------------------------------------7--14--14-14------------14--14----|
A|--9--9-7-7-6-7-6-4-4-4-4--9--9-7-7-6-6---7---------------------------------|
E|-----------------------------------------5---------------------------------|

e|-----------------------------------------5---------------------------------|
B|-----------------------------------------5--14-------14--------------------|
G|-11-11-9-9-8-9-8-6-6-6-6-11-11-9-9-8-8---6--13-16----13-16-----------------|
D|-----------------------------------------7--14-14----14-14-----------------|
A|--9--9-7-7-6-7-6-4-4-4-4--9--9-7-7-6-6---7-------19-------19---------------|
E|-----------------------------------------5--------0--------0---------------|

[Verse 2 Felix] (same stuff as last verse)
e|---------------------------------------------------------------------------|
B|---------------------------------------------------------------------------|
G|---------9-------------6---------------------------------------------------|
D|-----6-----9---6---6-----9-6-----------------------------------------------|
A|---7---7-----7---7---7-----------------------------------------------------|
E|-0-------------------------------------------------------------------------|

[Verse 2 Hugo] (same stuff)
e|-----------------------------------------5---------------------------------|
B|-----------------------------------------5-----------12-12-12---------14-12|
G|-11-11-9-9-8-9-8-6-6-6-6-11-11-9-9-8-8---6----13--------------13---13------|
D|-----------------------------------------7--14--14-14------------14--14----|
A|--9--9-7-7-6-7-6-4-4-4-4--9--9-7-7-6-6---7---------------------------------|
E|-----------------------------------------5---------------------------------|

e|-----------------------------------------5---------------------------------|
B|-----------------------------------------5--14-------14--------------------|
G|-11-11-9-9-8-9-8-6-6-6-6-11-11-9-9-8-8---6--13-16----13-16-----------------|
D|-----------------------------------------7--14-14----14-14-----------------|
A|--9--9-7-7-6-7-6-4-4-4-4--9--9-7-7-6-6---7-------19-------19---------------|
E|-----------------------------------------5--------0--------0---------------|

[Hugo Verse 2 variation]
e|---------------------------------------------------------------------------|
B|-----5-------14----------------5---14----------14--------------------------|
G|---6---------13--16-----------6----13--16------13--16----------------------|
D|-4-----------14--14----------4-----14--14------14--14----------------------|
A|----------------------19------------------19-----------19------------------|
E|-----------------------0-------------------0------------0------------------|

[Hugo Bridge]
e|---------------------------------------------------------------------------|
B|-----------12-12-12------------------14-14-14------------------------------|
G|---13---------------13-------13---------------13--x2-----------------------|
D|-14--14-14----------------14---14-14---------------------------------------|
A|---------------------------------------------------------------------------|
E|---------------------------------------------------------------------------|

[Hugo Bridge Continued]
e|---------------------------------------------------------------------------|
B|-----------12-12-12----------------2-2-2--------------12-12-12-------------|
G|---13---------------13-------1-----------2-----13--------------13---13-----|
D|-14--14-14----------------2----2-2-----------14--14-14------------14--14-14|
A|---------------------------------------------------------------------------|
E|---------------------------------------------------------------------------|

e|---------------------------------------------------------------------------|
B|-14-14-14-----------14-------14-------12-----12----------------------------|
G|-----------------------------------------------------13----------13--------|
D|-------------14-14-----14-14----14-14---14-14---14-14------14-14-----x2----|
A|---------------------------------------------------------------------------|
E|---------------------------------------------------------------------------|

[Hugo Outro]
e|---------------------------------------------------------------------------|
B|-----------12-12-12------------------14-14-14------------------------------|
G|---13---------------13-------13---------------13--x2-----------------------|
D|-14--14-14----------------14---14-14---------------------------------------|
A|---------------------------------------------------------------------------|
E|---------------------------------------------------------------------------|

e|---------------------------------------------------------------------------|
B|---------------------------------------------------------------------------|
G|---6-6s8-------------------------------------------------------------------|
D|---7-7s9---6---------------------------------------------------------------|
A|---0-0-----7---------------------------------------------------------------|
E|-----------0---------------------------------------------------------------|

Leave a comment if you have any corrections, suggestions or anything to add for Felix's parts.
Tap to rate this tab
 
# A B C D E F G H I J K L M N O P Q R S T U V W X Y Z