Song name
# A B C D E F G H I J K L M N O P Q R S T U V W X Y Z

The Maccabees - Happy Faces tab

there basically are no tabs for this and the ones that are on here are a little
bit shocking so i did it for you and it wasted an evening and it's my first =] enjoy

intro
Rhythm Guitar           x4
e|-----------5------------5------------5-----------5------------------------|
B|--------------------------------------------------------5--7--------------|
G|--6-----------6------------6------------6------------7--------------------|
D|--7-----------7------------7------------7---------------------------------|
A|--7-----------7------------7------------7---------------------------------|
E|--5-----------5------------5------------5---------------------------------|


Lead Guitar               x2
e|----------(5)------------(5)----------(5)----------(5)-------------------------|
B|----------------------------------------------------------5--7-----------------|
G|------------------------------------------------------7------------------------|
D|-------------------------------------------------------------------------------|
A|-------------------------------------------------------------------------------|
E|-------------------------------------------------------------------------------|
Continued                 x2
e|--------------------------------------------------------------------------|
B|---------------------------------------------------------5--7-------------|
G|------------------------------------------------------7-------------------|
D|-----------------------------7-7-7-7-7-7-7-7-7-7-7-7----------------------|
A|--------------------------------------------------------------------------|
E|--------------------------------------------------------------------------|

Intro continued

Rhythm                       x2
e|-------------------------------------------------------------------------------|
B|------------------------------(5)-(7)------------------------------(5)-(7)-----|
G|--6-6-6-6-6-6-6-6-6-6-6-6--(7)--------6-6-6-6-6-6-6-6-6-6-6-6--(7)-------------|
D|--7-7-7-7-7-7-7-7-7-7-7-7------------7-7-7-7-7-7-7-7-7-7-7-7-------------------|
A|--7-7-7-7-7-7-7-7-7-7-7-7------------7-7-7-7-7-7-7-7-7-7-7-7-------------------|
E|--5-5-5-5-5-5-5-5-5-5-5-5------------5-5-5-5-5-5-5-5-5-5-5-5-------------------|

Lead
e|------5---5-5---5-----5----5-7-5-7------5---5-5---5-----5------5-7-5-7----|
B|------x---x-x---x-----x-----------------x---x-x---x-----x-----------------|
G|--2-2-2-2-2-2-2-2-2-2-2-2-----------2-2-2-2-2-2-2-2-2-2-2-2---------------|
D|--------------------------------------------------------------------------|
A|--------------------------------------------------------------------------|
E|--------------------------------------------------------------------------|

Rhythm
e|--------------------------------------------------------------------------|
B|----777--7----------777--7----------777--7----------777-------------------|
G|----777--7----------777--7----------777--7----------777-------------------|
D|----777--7----------777--7----------777--7----------777-------------------|
A|----555--5----------555--5----------555--5----------555-------------------|
E|--------------------------------------------------------------------------|

Lead
e|--------------------------------------------------------------------------|
B|--------------------------------------------------------------------------|
G|--------------------------------------------------------------------------|
D|------------4-4-7-7---------4-4-7-7---------4-4-7-7---------4-4-7-7-------|
A|----5-5-7-7---------5-5-7-7---------5-5-7-7---------5-5-7-7---------------|
E|--------------------------------------------------------------------------|
                                                                Repeat

Rhythm         x2
e|-------------------------------------------------------------------------------|
B|--3----------------------------------------------------------------------------|
G|--4-------------------------------------7-7-7-7-7-7-7-7-7-7-7-7-7-7-7-7--------|
D|--4-------------------------------------5-5-5-5-5-5-5-5-5-5-5-5-5-5-5-5--------|
A|--2------------------------------------------Gradually Get Louder--------------|
E|-------------------------------------------------------------------------------|
 Lead
e|--------------------------------------------------------------------------|
B|--------------------------------------------------------------------------|
G|--------------------------------------------------------------------------|
D|--------------------------------------------------------------------------|
A|--2--------------------------10--------5--------10--------5--------10-----|
E|--------------------------------------------------------------------------|
Rhythm
e|-------------------------------------------------------------------------------|
B|--3----------------------------------------------------------------------------|
G|--4-------------------------------------7-7-7-7-7-7-7-7-7-7-7-7-7-7-7-7--------|
D|--4-------------------------------------5-5-5-5-5-5-5-5-5-5-5-5-5-5-5-5--------|
A|--2------------------------------------------Gradually Get Louder--------------|
E|-------------------------------------------------------------------------------|
Lead
e|--------------------------------------------------------------------------|
B|--------------------------------------------------------------------------|
G|--------------------------------------------------------------------------|
D|--------------------------------------------------------------------------|
A|--2-2-2-2-2-2-2-2-2-2-2-2-9-9-9-9-10-10-10-9-10-10-10-12-9-9-9-9-5-5-5-5--|
E|--------------------------------------------------------------------------|

e|--------------------------------------------------------------------------|
B|--------------------------------------------------------------------------|
G|--------------------------------------------------------------------------|
D|--------------------------------------------------------------------------|
A|-10-10-10-9-10-10-10-12-9-9-9-9-5-5-5-5-10101010101010101010101010101010--|
E|--------------------------------------------------------------------------|

Chorus

Rhythm
e|--------------------------------------------------------------------------|
B|----777--7----------777--7----------777--7----------777-------------------|
G|----777--7----------777--7----------777--7----------777-------------------|
D|----777--7----------777--7----------777--7----------777-------------------|
A|----555--5----------555--5----------555--5----------555-------------------|
E|--------------------------------------------------------------------------|
Lead
e|--------------------------------------------------------------------------|
B|--------------------------------------------------------------------------|
G|--------------------------------------------------------------------------|
D|------------4-4-7-7---------4-4-7-7---------4-4-7-7---------4-4-7-7-------|
A|----5-5-7-7---------5-5-7-7---------5-5-7-7---------5-5-7-7---------------|
E|--------------------------------------------------------------------------|
Rhythm
e|--------------------------------------------------------------------------|
B|--12----------------------------------------------------------------------|
G|--12----------------------------------------------------------------------|
D|--12----------------------------------------------------------------------|
A|--10----------------------------------------------------------------------|
E|--------------------------------------------------------------------------|
Lead
e|--------------------------------------------------------------------------|
B|--------------------------------------------------------------------------|
G|--------------------------------------------------------------------------|
D|--7-7-7-7-7-7-7-7---1212121212121212--7-7-7-7-7-7-7-7---1212121212121212--|
A|--5-5-5-5-5-5-5-5---1010101010101010--5-5-5-5-5-5-5-5---1010101010101010--|
E|--------------------------------------------------------------------------|

Rhythm
e|--------------------------------------------------------------------------|
B|----777--7----------777--7----------777--7----------777-------------------|
G|----777--7----------777--7----------777--7----------777-------------------|
D|----777--7----------777--7----------777--7----------777-------------------|
A|----555--5----------555--5----------555--5----------555-------------------|
E|--------------------------------------------------------------------------|
Lead
e|--------------------------------------------------------------------------|
B|--------------------------------------------------------------------------|
G|--------------------------------------------------------------------------|
D|------------4-4-7-7---------4-4-7-7---------4-4-7-7---------4-4-7-7-------|
A|----5-5-7-7---------5-5-7-7---------5-5-7-7---------5-5-7-7---------------|
E|--------------------------------------------------------------------------|
Rhythm
e|--------------------------------------------------------------------------|
B|--12----------------------------------------------------------------------|
G|--12----------------------------------------------------------------------|
D|--12----------------------------------------------------------------------|
A|--10----------------------------------------------------------------------|
E|--------------------------------------------------------------------------|
Lead
e|--------------------------------------------------------------------------|
B|--------------------------------------------------------------------------|
G|--------------------------------------------------------------------------|
D|--------------------------------------------------------------------------|
A|---------9-9-12-12----------12-12-9-9----------9-9-12-12---------12-12-9-9|
E|-10101010-----------10101010-----------10101010----------10101010---------|


repeat stuff that needs repeating and stuff...end on:
e|--5-----------------------------------------------------------------------|
B|--7-----------------------------------------------------------------------|
G|--7-----------------------------------------------------------------------|
D|--7-----------------------------------------------------------------------|
A|--5-----------------------------------------------------------------------|
E|--------------------------------------------------------------------------|


thanks, Lewis Rees :]

...sort your life out...
Tap to rate this tab
# A B C D E F G H I J K L M N O P Q R S T U V W X Y Z