The Maccabees - Walking In The Air tab

Walking in the air - The Maccabees  (Cover)


SEQUENCE  (guitar comes in ~0:10)

MAIN RIFF (X2)
FOLLOW-ON
VERSE     (X2)
BRIDGE
MAIN RIFF (X2)
BRIDGE
MAIN RIFF (X2)
FOLLOW-ON (X2)


^^^^^^^^^^^^^^^^^^^^^^^^^^^^^^^^^^^^^^^^^^^^^^^^^^^^^^^^^^^^^^^^^^^^^^^^^^^^

MAIN RIFF

e|--------------------------------------------------------------------------|
B|--------------------------------------------------------------------------|
G|--2-7-7-5-5-2---2-7-7-5-5-2-----------------------------------------------|
D|-------------------------------3-5----------------------------------------|
A|--------------------------------------------------------------------------|
E|--------------------------------------------------------------------------|

e|--------------------------------------------------------------------------|
B|--------------------------------------------------------------------------|
G|--0--3-3-2-2-0------------------------------------------------------------|
D|-----------------0--3-3-2-2-0---------------------------------------------|
A|--------------------------------------------------------------------------|
E|--------------------------------------------------------------------------|

^^^^^^^^^^^^^^^^^^^^^^^^^^^^^^^^^^^^^^^^^^^^^^^^^^^^^^^^^^^^^^^^^^^^^^^^^^^^

FOLLOW-ON
e|--------------------------------------------------------------------------|
B|--------------------------------------------------------------------------|
G|-5-3-5-3-2---0-2-0-2-0----------------------------------------------------|
D|-----------------------3---3-2-3-2-0--------------------------------------|
A|--------------------------------------5-3-5-3-1--0------------------------|
E|--------------------------------------------------------------------------|

^^^^^^^^^^^^^^^^^^^^^^^^^^^^^^^^^^^^^^^^^^^^^^^^^^^^^^^^^^^^^^^^^^^^^^^^^^^^

VERSE
e|--------------------------------------------------------------------------|
B|--------------------------------------------------------------------------|
G|--7-(x18)-----------9-(x12)----------10-(x6)-----------7-(x12)------------|
D|--------------------------------------------------------------------------|
A|--------------------------------------------------------------------------|
E|--------------------------------------------------------------------------|
  

^^^^^^^^^^^^^^^^^^^^^^^^^^^^^^^^^^^^^^^^^^^^^^^^^^^^^^^^^^^^^^^^^^^^^^^^^^^^

BRIDGE
e|--------------------------------------------------------------------------|
B|--------------------------------------------------------------------------|
G|--------------------4-5-7-4-0-------------------------------3--2----------|
D|----------4-6-7------------------------------------3-5-7---2-----2--------|
A|--4-5-7-----------------------------------3-5-7---------------------------|
E|--------------------------------------------------------------------------|

^^^^^^^^^^^^^^^^^^^^^^^^^^^^^^^^^^^^^^^^^^^^^^^^^^^^^^^^^^^^^^^^^^^^^^^^^^^^


SEQUENCE

MAIN RIFF (X2)
FOLLOW-ON
VERSE     (X2)
BRIDGE
MAIN RIFF (X2)
BRIDGE
MAIN RIFF (X2)
FOLLOW-ON (X2)


I think this is pretty much correct =]  Please rate =D

Tabbed by Tom  (robinz26)
Tap to rate this tab
 
# A B C D E F G H I J K L M N O P Q R S T U V W X Y Z