Song name
# A B C D E F G H I J K L M N O P Q R S T U V W X Y Z

The Maccabees - Walking In The Air tab

The Maccabees- Walking In The Air (cover)

This tab is for lead guitar, alot of reverb in the verse and a bit of distortion in the chorus.

There is another tab for this, but I've just changed the notes an octave down, pretty 
sure this is how Felix plays it in the video.

MAIN RIFF

e|--------------------------------------------------------------------------|
B|--------------------------------------------------------------------------|
G|--14-19-19-17-17-14---14-19-19-17-17-14-----------------------------------|
D|----------------------------------------15-17-----------------------------|
A|--------------------------------------------------------------------------|
E|--------------------------------------------------------------------------|


e|--------------------------------------------------------------------------|
B|--------------------------------------------------------------------------|
G|--12-15-15-14-14-12-------------------------------------------------------|
D|---------------------12-15-15-14-14-12------------------------------------|
A|--------------------------------------------------------------------------|
E|--------------------------------------------------------------------------|


FOLLOW-ON
e|--------------------------------------------------------------------------|
B|--------------------------------------------------------------------------|
G|-17-15-17-15-14---12-14-12-14-12------------------------------------------|
D|---------------------------------15---15-14-15-14-12----------------------|
A|------------------------------------------------------17-15-17-15-13--12--|
E|--------------------------------------------------------------------------|

VERSE
e|--------------------------------------------------------------------------|
B|--------------------------------------------------------------------------|
G|--7-(x18)-----------9-(x12)----------10-(x6)-----------7-(x12)------------|
D|--------------------------------------------------------------------------|
A|--------------------------------------------------------------------------|
E|--------------------------------------------------------------------------|

BRIDGE
e|--------------------------------------------------------------------------|
B|--------------------------------------------------------------------------|
G|--------------------15-17-19--19-15----------------------------19--17--15-|
D|----------15-17-19------------------------------------15-17-19------------|
A|--15-17-19-----------------------------------15-17-19---------------------|
E|--------------------------------------------------------------------------|


SEQUENCE

MAIN RIFF (X2)
FOLLOW-ON (X1)
VERSE     (X2)
BRIDGE    (X1)
MAIN RIFF (X2)
BRIDGE    (X1)
MAIN RIFF (X2)
FOLLOW-ON (X2)

Tabbed by Tom Dawson, xo
Tap to rate this tab
# A B C D E F G H I J K L M N O P Q R S T U V W X Y Z