Song name
# A B C D E F G H I J K L M N O P Q R S T U V W X Y Z

The Maccabees - Pelican tab

-------------------------------------------------------------------------------
			     The Maccabees - Pelican
-------------------------------------------------------------------------------
Tabbed by: Nathan Wright
Email: nath9685@live.co.uk

Tuning: Standard

Main Part repeated throughout:

e|--------------------------|
B|--------------------------|
G|--------------------7--7--|
D|--7-----7-----7-----7--7--|
A|--7-----7-----7-----5--5--|
E|--5-----5-----5-----------|

Riff 1:

e|------------------------|
B|------1010-12-10----10--|
G|--1212-----------12-----|
D|------------------------|
A|------------------------|
E|------------------------|

Riff 2

e|-------------|---------------|
B|-------------|---------------|
G|-------------|---------------|
D|--------6-7--|--------6-7-9--|
A|--797979-----|--797979-------|
E|-------------|---------------|

e|-------------|---------------|
B|-------------|---------------|
G|-------------|---------------|
D|--------4-5--|--------4-5-7--|
A|--575757-----|--575757-------|
E|-------------|---------------|



Tap to rate this tab
# A B C D E F G H I J K L M N O P Q R S T U V W X Y Z