Song name
# A B C D E F G H I J K L M N O P Q R S T U V W X Y Z

The Maccabees - Went Away tab

Standard tuning

CAPO 4

e---------3---------------3-------3--------3-------3-----3-----|
B---0---0---0---0---0---0---0---------0-/-0---0------0-/-0---0-|
G-----0-------0-------0-------0-----------------0----------0---|
D--------------------------------------------------------------|
A-----------------------------------3---------------3----------|
E-3----------------3-------------------------------------------|


e----------3---------------3--------------3--------------3----------|
B---0---0---0/-0----0----0---0/-0---0---0--0/-0----0---0---0---0----|
G-------------------------------------0--------------0-------0------|
D-0---0----------0----0---------------------------------------------|
A---------------------------------3-------------3-------------------|
E-------------------------------------------------------------------|

And repeat :)

(when I write "/" I mean "a little pause".You can listen to the song and realize it yourself)

Tap to rate this tab
# A B C D E F G H I J K L M N O P Q R S T U V W X Y Z