Song name
# A B C D E F G H I J K L M N O P Q R S T U V W X Y Z

The Maccabees - Went Away tab

Saw that someone had an intro posted but nothing else so I went ahead and
figured out this little lead bit that goes over the chorus. If five or ten
more people contribute we'll have a full song happening :P. Maybe not the
most efficient way to play it but in the video felix white is doing
something along these lines.
p.s. first tab so go easy

e--19--21--19------19------------------------------------------------------|
B--------------21------21--19--21--19--16--19--16--14--16--14------14------|
G--------------------------------------------------------------16------16--|
D--------------------------------------------------------------------------|
A--------------------------------------------------------------------------|
E--------------------------------------------------------------------------|

e----------------------------------------------------------|
B--------------------------14----------14----------14------|
G--13--16--13------13--16------16--13------16--13------13--|
D--------------16------------------------------------------|
A----------------------------------------------------------|
E----------------------------------------------------------|
Tap to rate this tab
# A B C D E F G H I J K L M N O P Q R S T U V W X Y Z