Song name
# A B C D E F G H I J K L M N O P Q R S T U V W X Y Z

The Maccabees - Young Lions tab

-------------------------------------------------------------------------------
                            YOUNG LIONS - The Maccabees
-------------------------------------------------------------------------------

only managed to do the intro and verses but might update it soon when i've worked the rest out :)

Tuning: Standard

Intro:

e|---------------------------------------------------------------------------|
B|---------------------------------------------------------------------------|
G|----11-----11----11--------------------------------------------------------| x3
D|-12-----12-----12----12--11------------------------------------------------|
A|-----------------------------12--------------------------------------------|
E|---------------------------------------------------------------------------|

e|---------------------------------------------------------------------------|
B|---------------------------------------------------------------------------|
G|----11-----11-----11-------------------------------------------------------|
D|-12-----12-----12----12--11------------------------------------------------|
A|---------------------------------------------------------------------------|
E|---------------------------------------------------------------------------|


Verse:

e|---------------------------------------------------------------------------|
B|---------------------------------------------------------------------------|
G|----11-----11----11--------------------------------------------------------| x2
D|-12-----12-----12----12--11------------------------------------------------|
A|-----------------------------12--------------------------------------------|
E|---------------------------------------------------------------------------|

e|---------------------------------------------------------------------------|
B|---------------------------------------------------------------------------|
G|---------------------------------------------------------------------------| x2
D|---------------------------------------------------------------------------|
A|12--2--5--7--9---5--9--7---------------------------------------------------|
E|---------------7-----------------------------------------------------------|



Tap to rate this tab
# A B C D E F G H I J K L M N O P Q R S T U V W X Y Z