Song name
# A B C D E F G H I J K L M N O P Q R S T U V W X Y Z

The Maccabees - The Real Thing tab

the chords you need are a standard C and Am

Intro

e|-----------------------------------------------------------------------|
B|-----------------------------------------------------------------------|
G|-----------12------------------10--------------------------------------|
D|-----------------------------------------------------------------------|
A|-----------------------------------------------------------------------|
E|-----------------------------------------------------------------------|

Or


e|----------3---------------------1--------------------------------------|
B|-----------------------------------------------------------------------|
G|-----------------------------------------------------------------------|
D|-----------------------------------------------------------------------|
A|-----------------------------------------------------------------------|
E|-----------------------------------------------------------------------|

then (2nd part of the intro)
(KEEPING IN MIND THAT YOU WILL HAVE THE CHORD POSITION ON)
         C       Am        C
e|-----------------------------------------------------------------------|
B|-------1-------------1----------1--------------------------------------|
G|-------0-------------2----------0--------------------------------------|
D|---------------0h2-------0h2-------------------------------------------|
A|----3------------------------------------------------------------------|
E|-----------------------------------------------------------------------|

(that pattern is repeated throughout the song)
repeated twice as intro


then Orlando begins to sing and this is played as the verse

    C                        Am        C   
e|-----------------------------------------------------------------------|
B|------1------1--------1-----------1-------------1------1-------1-------|
G|------0------0--------0-----------2-------------0------0-------0-------|
D|-----------------------------0h2-----0h2-------------------------------|
A|--3-------3-------3-------------------------3-------3-------3----------|
E|-----------------------------------------------------------------------|

Thats played a few times

then the "chorus" is just the Am chord


e|-----------------------------------------------------------------------|
B|-----------1-------------1---------------------------------------------|
G|-----------2-------------0---------------------------------------------|
D|-----0h2-----------0h2-------------------------------------------------|
A|-----------------------------------------------------------------------|
E|-----------------------------------------------------------------------|

Thats repeated a few times (listen to the track for timings)

then back to the 2nd part of the intro (only once)

then repeat the verse


I hope this helped, it was my first tab so if i fudged you up i'm sorry

Tabbed by Ronando 
Tap to rate this tab
# A B C D E F G H I J K L M N O P Q R S T U V W X Y Z