Song name
# A B C D E F G H I J K L M N O P Q R S T U V W X Y Z

The Maccabees - Grew Up At Midnight tab

I have been waiting for someone to tab this for so long and it didn't happen so I gave 
up and thought I'd do it myself. There's some picking ideas and some chords just as a 
rough idea, play around with it.

Intro and Verse
      C        C        F
e|--------------------------------|
B|----1--------1------------------|
G|----------------------2---------| (repeats)
D|-------------2------------------|
A|----3---------------------------|
E|----------------------1---------|

*Ooh ooh ooh*
     Dm    C    G
e|--------------------------------|
B|--------------------------------|
G|----7----5----4-----------------|
D|----0----3----5-----------------|
A|--------------------------------|
E|--------------------------------|

*We grew up at midnight*
      C        F
e|----0--------1------------------|
B|----1--------1------------------|
G|----0--------2------------------|(repeats)
D|----2--------3------------------|strum it, pick it, do whatever you like
A|----3--------3------------------|
E|-------------1------------------|

*Loving woman, loving man*
     Dm    C    G    C
e|----1----0----3----0-------------|
B|----3----1----3----1-------------|
G|----2----0----0----0-------------|
D|----0----2----0----2-------------|
A|----0----3----2----3-------------|
E|--------------3------------------|

*Outside of the window*
      C        F
e|----0--------1------------------|
B|----1--------1------------------|
G|----0--------2------------------|(repeats)
D|----2--------3------------------|strum it, pick it, do whatever you like
A|----3--------3------------------|
E|-------------1------------------|

*Ooh ooh ooh*
     Dm    C    G
e|--------------------------------|
B|--------------------------------|
G|----7----5----4-----------------|
D|----0----3----5-----------------|
A|--------------------------------|
E|--------------------------------|

Instrumental Section
      C        F
e|----0--------1------------------|
B|----1--------1------------------|
G|----0--------2------------------|
D|----2--------3------------------| x2
A|----3--------3------------------|
E|-------------1------------------|

*We grew up at midnight
We were only kids then*
      C        F
e|----0--------1------------------|
B|----1--------1------------------|
G|----0--------2------------------|(repeats)
D|----2--------3------------------|strum it, pick it, do whatever you like
A|----3--------3------------------|
E|-------------1------------------|

Ending
*We grew up at midnight*
      C        F
e|----0--------1------------------|
B|----1--------1------------------|
G|----0--------2------------------| x4
D|----2--------3------------------|
A|----3--------3------------------|
E|-------------1------------------|

      C        C        F
e|--------------------------------|
B|----1--------1------------------|
G|----------------------2---------| x2
D|-------------2------------------|
A|----3---------------------------|
E|----------------------1---------|
Tap to rate this tab
 
# A B C D E F G H I J K L M N O P Q R S T U V W X Y Z