Song name
# A B C D E F G H I J K L M N O P Q R S T U V W X Y Z

The Maccabees - Precious Time tab

Solo is 100% correct :))

Guitar 1

e|------------10-10-10-10-----------999--------------------|
B|-------------------------------------1010----------------|
G|---11-11-11-------------11-11-11-------------------------|
D|---------------------------------------------------------|
A|---------------------------------------------------------|
E|---------------------------------------------------------|

e|------------10-10-10-10-----------999--------------------|
B|--------------------------------------1010---------------|
G|---11-11-11-------------11-11-11-------------------------|
D|---------------------------------------------------------|
A|---------------------------------------------------------|
E|---------------------------------------------------------|

e|----12-------12------12----14-----14---------------------|
B|-------14-------14-----14----14-------14-----------------|
G|----------14-------14----14----14---------14-------------|
D|---------------------------------------------------------|
A|---------------------------------------------------------|
E|---------------------------------------------------------|

e|---------------------------------------------------------|
B|---121212121212121212/1515151515151515/77777777----------|
G|---------------------------------------------------------|
D|---------------------------------------------------------|
A|---------------------------------------------------------|
E|---------------------------------------------------------|

Guitar 2

e|---------------|----------|----------------------------|
B|---------------|----------|----------|-----------------|
G|---------------|----------|----------|-----------------|
D|-----12--------|-12-------|-9--------|--7--------------| x2
A|-----10--(X12)-|-9---(x4)-|-7--(x12)-|--5-----(x4)-----|
E|---------------|----------|----------|-----------------|

e|---------------------------------------------------|
B|---------------------------------------------------|
G|----------------------------------7777777777777777-|
D|-----1010101010101010-999-777-55-------------------|  x2
A|----------------------------------5555555555555555-|
E|-----8-8-8-8-8-8-8-8--777-555-33-------------------|
Tap to rate this tab
 
# A B C D E F G H I J K L M N O P Q R S T U V W X Y Z