Song name
# A B C D E F G H I J K L M N O P Q R S T U V W X Y Z

The Maccabees - Child tab

-------------------------------------------------------------------------------
                             CHILD - The Maccabees
-------------------------------------------------------------------------------
Tabbed by: BNoronha
E-mail: bernardo.a.noronha@gmail.com

Tuning:
e|---------------------------------------------------------------------------|
B|---------10---------------------------------10-----------------------------|
G|--------------11p9-11p9--------------------------11p9-11p9-----------------|
D|--9h11-9----------------9h11-9-------9h11-9----------------9h11-9---11-----|
A|---------------------------------------------------------------------------|
E|---------------------------------------------------------------------------|

e|---------------------------------------------------------------------------|
B|---------------------------------------------------------------------------|
G|---------------------------------------------------------------------------|
D|--7---9p7-9p7-4h7p-9-7------9p7-9-11p9-11---------------------------(2x)---|
A|---------------------------------------------------------------------------|
E|---------------------------------------------------------------------------|


************************************

| /   slide up
| \   slide down
| h   hammer-on
| p   pull-off
| ~   vibrato
| +   harmonic
| x   Mute note
| b   Bend
| pb  Pre-bend
| br  Bend release
| pbr Pre-bend release
| brb Bend release bend

************************************
Tap to rate this tab
# A B C D E F G H I J K L M N O P Q R S T U V W X Y Z