Song name
# A B C D E F G H I J K L M N O P Q R S T U V W X Y Z

The Maccabees - Slowly One tab

-----------------------------------------------------------------------------
                         The Maccabees - Slowly One
-----------------------------------------------------------------------------
Tabbed by: Marcus Marchal (Warflojd)
E-mail: mackan_003_94@hotmail.com

Tuning: Standard
No capo

A really simple acoustic version made from the orignial song. The tabbed parts are 
probably played with some reverb on the electric guitar or something, but i just thought it 
could be fun to tab it out while I was at it.


(This is played during the whole song basically)
e|-----------------------------------------------------------------|
B|-----------------------------------------------------------------|
G|--9--9--9--9--9--9--9--9--9--9--7--9--7--9--7--9--7--9--7--9-----|
D|-----------------------------------------------------------------|
A|-----------------------------------------------------------------|
E|-----------------------------------------------------------------|

e|--------------------------------------------------------------|
B|--8-----8-----8-----8-----8-----7--8--7--8--7--8--7--8--7--8--|
G|-----7-----7-----7-----7-----7--------------------------------|
D|--------------------------------------------------------------|
A|--------------------------------------------------------------|
E|--------------------------------------------------------------|

Verse 1:
               C
In every quiet moment
                Bm
In every little silence
              C                Bm
Every small reminder where you find her
                C
With every left light on
    Bm
Let alone
             C
Every little loving word
            Bm
Said out of love
      A
Going cold


Chorus:
C                                       Bm
Little by little by little by little by little by little by little by little
C         Bm
I'm, laid down (x2)

e|--8--7---------8--7---------8--7------7--8--10--|
B|--------10-----------10-----------10------------|
G|------------9------------9----------------------|
D|------------------------------------------------|
A|------------------------------------------------|
E|------------------------------------------------|
(Played by a second guitar during the chorus)


Verse 2:
         C
I can go wherever
          Bm
Still the same
              C           Bm
Every small reminder of a name
         C
Any half measures
    Bm
Any pleasures
            C              Bm
Every new encounter that's not her
           A
Leaves you cold


Chorus:
C                                       Bm
Little by little by little by little by little by little by little by little
C         Bm
I'm, laid down (x2)

E|--8--7---------8--7---------8--7------7--8--10--|
B|--------10-----------10-----------10------------|
G|------------9------------9----------------------|
D|------------------------------------------------|
A|------------------------------------------------|
E|------------------------------------------------|
(Played by a second guitar during the chorus)


C
Some day you're going to wake up
                         Bm
And think you went a day without (x2)
      A
Going cold


Intstrumental part:
C - Bm (x12)

E|---------------7-------------------7---------|
B|--------8--10-----10--------8--10-----10--7--|
G|--7--9----------------7--9-------------------|
D|---------------------------------------------|
A|---------------------------------------------|
E|---------------------------------------------|
(This is played during the instrumental part together with the tab from the chorus)


There is also a guitar playing these chords (a bit "heavier") during the instrumental 
part. Play them as power chords:
Em - G - F#m
Tap to rate this tab
 
# A B C D E F G H I J K L M N O P Q R S T U V W X Y Z