Song name
# A B C D E F G H I J K L M N O P Q R S T U V W X Y Z

The Maccabees - Firt Love Acoustic tab

this is the acoustic version orlando played on freshly squeezed, i think its right...


First love, Last love

e--0--------9------|
a--0--------9------|
d--11------11------|
g--x--------x------|
b--x--------x------|
e--x--------x------|

Only love, it's only love
e--0----------0---|
a-11--------11----|
d-11--------12----|
g--x---------x----|
b--x---------x----|
e--x---------x----|

First love, Last love
Only love, it's only love

VERSE

Do you miss home
e--------------5-------0---|
a--------------7-------7---|
d--------------7-------7---| x2
g--------------6-------6---|
b--------------5-------0---|
e--------------5-------0---|

Do you miss home

And are you cool

e-----------5-5-5-5-5-5-5-5-0-0-0-0-0-0-0-0---|
a-----------7-7-7-7-7-7-7-7-7-0-0-0-0-0-0-0---|
d-----------7-7-7-7-7-7-7-7-7-0-0-0-0-0-0-0---| x2  (palm mute)
g-----------6-6-6-6-6-6-6-6-6-0-0-0-0-0-0-0---|
b-----------5-5-5-5-5-5-5-5-0-0-0-0-0-0-0-0---|
e-----------5-5-5-5-5-5-5-5-0-0-0-0-0-0-0-0---|

Symmetrical

e-----------5-5-5-5-5-5-5-5-0-0-0-0-0-0-0-0---|
a-----------7-7-7-7-7-7-7-7-7-0-0-0-0-0-0-0---|
d-----------7-7-7-7-7-7-7-7-7-0-0-0-0-0-0-0---| x2 (palm mute)
g-----------6-6-6-6-6-6-6-6-6-0-0-0-0-0-0-0---|
b-----------5-5-5-5-5-5-5-5-0-0-0-0-0-0-0-0---|
e-----------5-5-5-5-5-5-5-5-0-0-0-0-0-0-0-0---|

Bm
Let's get married

And tick the boxes

e--------------5-5-5-5-5-5-5-5-0-0-0-0-0-0-0-0---|
a--------------7-7-7-7-7-7-7-7-7-0-0-0-0-0-0-0---|
d--------------7-7-7-7-7-7-7-7-7-0-0-0-0-0-0-0---| x2
g--------------6-6-6-6-6-6-6-6-6-0-0-0-0-0-0-0---|
b--------------5-5-5-5-5-5-5-5-0-0-0-0-0-0-0-0---|
e--------------5-5-5-5-5-5-5-5-0-0-0-0-0-0-0-0---|

                          Bm
And so she says, lets get married

And tick the boxes

VERSE

Do you wanna be alone

Do you wanna be alone

And are you cool
Symmetrical, hypocritical, analytical
So critical

Bm
When nothing's perfect;

 I was hoping I would do

e------------------5-5-5-5-5-5-5-5-0-0-0-0-0-0-0-0---|
a------------------7-7-7-7-7-7-7-7-7-0-0-0-0-0-0-0---|
d------------------7-7-7-7-7-7-7-7-7-0-0-0-0-0-0-0---| x2
g------------------6-6-6-6-6-6-6-6-6-0-0-0-0-0-0-0---|
b------------------5-5-5-5-5-5-5-5-0-0-0-0-0-0-0-0---|
e------------------5-5-5-5-5-5-5-5-0-0-0-0-0-0-0-0---|

                 Bm
But I won't do, cuz nothing's perfect

                                   D
And ill have to make do

D
When it's my mistake
And no mistake

     Bm
And I would take it back, if I could

D
So stay with me tonight

            Bm
When I make my bed, I'll lie in it

          D
And pillow talk you into it

      Bm
I'll make my bed, I'll lie in it

   D
Entice you with its leopard print

        A
And matching velvet duvet

First love, Last love

e--0--------9------|
a--0--------9------|
d--11------11------|
g--x--------x------|
b--x--------x------|
e--x--------x------|

Only love, it's only love

e--0----------0---|
a-11--------11----|
d-11--------12----|
g--x---------x----|
b--x---------x----|
e--x---------x----|
Tap to rate this tab
# A B C D E F G H I J K L M N O P Q R S T U V W X Y Z