Song name
# A B C D E F G H I J K L M N O P Q R S T U V W X Y Z

The Maccabees - About Your Dress tab

At the moment this is just Felix's Melody part from the C4 Acoustic Version.
Found here: http://www.youtube.com/watch?v=rW23HRyBPnc

e/--------------17--15------------------15-17------------15-17--------------|
B/--17---13--------------17--17/15-----------17---------------17------17/15-|
G/---------------------------------------------17---------------17----------|
D/--------------------------------------------------------------------------|
A/--------------------------------------------------------------------------|
E/--------------------------------------------------------------------------|


e/----12---12---12---12----------15-----------------17---15----------5----3-|
B/-------13---13---13---13-------17-----17----13---------------5------------|
G/-------------------------------17-------------------------------5---------|
D/--------------------------------------------------------------------------|
A/--------------------------------------------------------------------------|
E/--------------------------------------------------------------------------|


e/----------17--15-------------------------15-17-------15-17-------15-17----|
B/--17---13--------------17-------17/15---------17-----------17----------17-|
G/------------------------------------------------17-----------17-----------|
D/--------------------------------------------------------------------------|
A/--------------------------------------------------------------------------|
E/--------------------------------------------------------------------------|

e/------------------12---12---12---12---12------15--------------------------|
B/-17---17---17/15----13---13---13---13---13----17----17--13---5------------|
G/----------------------------------------------17-----------------5--------|
D/--------------------------------------------------------------------------|
A/--------------------------------------------------------------------------|
E/--------------------------------------------------------------------------|

e/--------------------------------------|
B/-------17-----13-----------5----------|
G/--------------------------------------|
D/--------------------------------------|
A/--------------------------------------|
E/--------------------------------------|


For the following parts I have not tabbed the correct repetitions so you must listen to 
recording on youtube for the timings.
e/-15-17-------|
B/------17-----|
G/--------17---|
D/-------------|
A/-------------|
E/-------------|

Also you may find it a bit of a tight squeeze playing this part.
I find that Holding the Following chord shape and using my little finger to hit the A 
best, in order to play it at speed.
e/-15-             e/-15h17-----|
B/-17-  Therefore: B/------17---|
G/-17-  (In effect G/--------17-|
D/----   you are   D/-----------|
A/----   hammering A/-----------|
E/----   on the 17)E/-----------|

(I'll Tab Orlando's Part As Soon As I can Thanks)
Tap to rate this tab
 
# A B C D E F G H I J K L M N O P Q R S T U V W X Y Z