Song name
# A B C D E F G H I J K L M N O P Q R S T U V W X Y Z

The Maccabees - Lego tab

Gtr I (E A D G B E) - 'Hugo White'
Gtr II (E A D G B E) - 'Felix White'

  Q=180

 4/4

  Gtrs I
   E  E  E  E  E  E  E  E    E  E  E  E  E  E  E  E
|-------------------------|-------------------------|
|-13-13-13-13-13-13-13-13-|-13-13-13-13-12-12-12-12-|
|-------------------------|-------------------------|
|-10-10-10-10-10-10-10-10-|-10-10-10-10--9--9--9--9-|
|-------------------------|-------------------------|
|-------------------------|-------------------------|
|
| Gtrs II
|  E  E  E  E  E  E  E  E    E  E  E  E  E  E  E  E
|-------------------------|-------------------------|
|-12-12-12-12-12-12-12-12-|--8--8--8--8--8--8--8--8-|
|--9--9--9--9--9--9--9--9-|--9--9--9--9--9--9--9--9-|
|-10-10-10-10-10-10-10-10-|-10-10-10-10-10-10-10-10-|
|-------------------------|-------------------------|
|-------------------------|-------------------------|


   E  E  E  E  E  E  E  E    E  E  E  E  E  E  E  E
|-------------------------|--------------------------|
|-15-15-15-15-15-15-15-15-|-17-17-17-17-17-17-17-17--|
|-------------------------|--------------------------|
|-12-12-12-12-12-12-12-12-|-14-14-14-14-14-14-14-14--|
|-------------------------|--------------------------|
|-------------------------|--------------------------|
|
|  E  E  E  E  E  E  E  E    E  E  E  E  E  E  E  E
|-------------------------|--------------------------|
|-------------------------|--0--0--0--0--0--0--0--0--|
|-10-10-10-10-10-10-10-10-|--9--9--9--9--9--9--9--9--|
|-12-12-12-12-12-12-12-12-|-10-10-10-10-10-10-10-10--|
|-12-12-12-12-12-12-12-12-|-10-10-10-10-10-10-10-10--|
|-------------------------|--------------------------|


   E  E  E  E  E  E  E  E    E  E  E  E  E  E  E  E
|-------------------------|-------------------------|
|-13-13-13-13-13-13-13-13-|-13-13-13-13-12-12-12-12-|
|-------------------------|-------------------------|
|-10-10-10-10-10-10-10-10-|-10-10-10-10--9--9--9--9-|
|-------------------------|-------------------------|
|-------------------------|-------------------------|
|
|  E  E  E  E  E  E  E  E    E  E  E  E  E  E  E  E
|-------------------------|-------------------------|
|-12-12-12-12-12-12-12-12-|--8--8--8--8--8--8--8--8-|
|--9--9--9--9--9--9--9--9-|--9--9--9--9--9--9--9--9-|
|-10-10-10-10-10-10-10-10-|-10-10-10-10-10-10-10-10-|
|-------------------------|-------------------------|
|-------------------------|-------------------------|


   E  E  E  E  E  E  E  E    E  E  E  E  E  E  E  E
|-------------------------|-------------------------|
|-------------------------|-------------------------|
|-------------------------|-------------------------|
|-12-12-12-12-12-12-12-12-|-14-14-14-14-14-14-14-14-|
|-------------------------|-------------------------|
|-10-10-10-10-10-10-10-10-|-12-12-12-12-12-12-12-12-|
|
|  E  E  E  E  E  E  E  E    E  E  E  E  E  E  E  E
|-------------------------|-------------------------|
|-------------------------|--0--0--0--0--0--0--0--0-|
|-10-10-10-10-10-10-10-10-|--9--9--9--9--9--9--9--9-|
|-12-12-12-12-12-12-12-12-|-10-10-10-10-10-10-10-10-|
|-12-12-12-12-12-12-12-12-|-10-10-10-10-10-10-10-10-|
|-------------------------|-------------------------|


   E  E  E  E  E  E  E  E    E  E  E  E  E  E  E  E
|-------------------------|-------------------------|
|-13-13-13-13-13-13-13-13-|-13-13-13-13-12-12-12-12-|
|-------------------------|-------------------------|
|-10-10-10-10-10-10-10-10-|-10-10-10-10--9--9--9--9-|
|-------------------------|-------------------------|
|-------------------------|-------------------------|
|
|  E  E  E  E  E  E  E  E    E  E  E  E  E  E  E  E
|-------------------------|-------------------------|
|-12-12-12-12-12-12-12-12-|--8--8--8--8--8--8--8--8-|
|--9--9--9--9--9--9--9--9-|--9--9--9--9--9--9--9--9-|
|-10-10-10-10-10-10-10-10-|-10-10-10-10-10-10-10-10-|
|-------------------------|-------------------------|
|-------------------------|-------------------------|


   E  E  E  E  E  E  E  E    E  E  E  E  E  E  E  E
|-------------------------|-------------------------|
|-15-15-15-15-15-15-15-15-|-17-17-17-17-17-17-17-17-|
|-------------------------|-------------------------|
|-12-12-12-12-12-12-12-12-|-14-14-14-14-14-14-14-14-|
|-------------------------|-------------------------|
|-------------------------|-------------------------|
|
|  E  E  E  E  E  E  E  E    E  E  E  E  E  E  E  E
|-------------------------|-------------------------|
|-------------------------|-------------------------|
|-10-10-10-10-10-10-10-10-|--9--9--9--9--9--9--9--9-|
|-12-12-12-12-12-12-12-12-|-10-10-10-10-10-10-10-10-|
|-12-12-12-12-12-12-12-12-|-10-10-10-10-10-10-10-10-|
|-------------------------|-------------------------|


   E  E  E  E  E  E  E  E    E  E  E  E  E  E  E  E
|-------------------------|-------------------------|
|-13-13-13-13-13-13-13-13-|-13-13-13-13-12-12-12-12-|
|-------------------------|-------------------------|
|-10-10-10-10-10-10-10-10-|-10-10-10-10--9--9--9--9-|
|-------------------------|-------------------------|
|-------------------------|-------------------------|
|
|  E  E  E  E  E  E  E  E    E  E  E  E  E  E  E  E
|-------------------------|-------------------------|
|-12-12-12-12-12-12-12-12-|--8--8--8--8--8--8--8--8-|
|--9--9--9--9--9--9--9--9-|--9--9--9--9--9--9--9--9-|
|-10-10-10-10-10-10-10-10-|-10-10-10-10-10-10-10-10-|
|-------------------------|-------------------------|
|-------------------------|-------------------------|


   E  E  E  E  E  E  E  E    E  E  E  E  E  E  E  E
|-------------------------|-------------------------|
|-------------------------|-------------------------|
|-------------------------|-------------------------|
|-12-12-12-12-12-12-12-12-|-14-14-14-14-14-14-14-14-|
|-------------------------|-------------------------|
|-10-10-10-10-10-10-10-10-|-12-12-12-12-12-12-12-12-|
|
|  E  E  E  E  E  E  E  E    E  E  E  E  E  E  E  E
|-------------------------|-------------------------|
|-------------------------|-------------------------|
|-10-10-10-10-10-10-10-10-|--9--9--9--9--9--9--9--9-|
|-12-12-12-12-12-12-12-12-|-10-10-10-10-10-10-10-10-|
|-12-12-12-12-12-12-12-12-|-10-10-10-10-10-10-10-10-|
|-------------------------|-------------------------|


  Wx8
|--------|
|--------|
|--------|
|--------|
|--------|
|--------|


   H.                 Q       H.                 Q
|--------------------------|--------------------------|
|--------------------------|--------------------------|
|-14-----------------12----|-14-----------------12----|
|--------------------------|--------------------------|
|--------------------------|--------------------------|
|--------------------------|--------------------------|
|
|  PM--------------------------------------------------
|  e   e  e  e  e  e  e  e    e   e  e  e  e  e  e  e
|--------------------------|--------------------------|
|--------------------------|--------------------------|
|-12--12--9--9-12-12--9--9-|-12--12--9--9-12-12--9--9-|
|-10--10-10-10-10-10-10-10-|-10--10-10-10-10-10-10-10-|
|--------------------------|--------------------------|
|--------------------------|--------------------------|


   >
   W                  +W
|------------------|--------------------|
|-13---------------|-(13)---------------|
|------------------|--------------------|
|------------------|--------------------|
|------------------|--------------------|
|------------------|--------------------|
|
|-------------------------------------|
|  e e e e e e e e     e  e e e e e e e
|------------------|--------------------|
|------------------|--------------------|
|--9-9-9-9-9-9-9-9-|---5--5-5-5-5-5-5-5-|
|--7-7-7-7-7-7-7-7-|---7--7-7-7-7-7-7-7-|
|------------------|--------------------|
|------------------|--------------------|


   Q     E  Q.    Q          Q     E  Q.    Q
|-------------------------|-------------------------|
|-------------------------|-------------------------|
|-------------------------|-------------------------|
|-10----14-14----14-------|-10----14-14----14-------|
|-------------------------|-------------------------|
|-------------------------|-------------------------|
|
|  H..               T  T    H..               T  T
|-------------------------|-------------------------|
|-10----------------10-10-|-10----------------10-10-|
|--9-----------------9--9-|--9-----------------9--9-|
|-10----------------10-10-|-10----------------10-10-|
|-------------------------|-------------------------|
|-------------------------|-------------------------|


   Q     E  Q.    Q          Q     E  Q.    Q
|-------------------------|---------------------|
|-------------------------|---------------------|
|-------------------------|---------------------|
|-10----14-14----14-------|-10----14-14----14---|
|-------------------------|---------------------|
|-------------------------|---------------------|
|
|  H..               T  T    H..
|-------------------------|---------------------|
|-10----------------10-10-|-10------------------|
|--9-----------------9--9-|--9------------------|
|-10----------------10-10-|-10------------------|
|-------------------------|---------------------|
|-------------------------|---------------------|


   W           W           Wx2
|-----------|------------|--------|
|-----------|------------|--------|
|-----------|------------|--------|
|-----------|------------|--------|
|-----------|------------|--------|
|-----------|------------|--------|
|
|  >
|  W           W           Wx2
|-----------|------------|--------|
|-10--------|-10---------|--------|
|--9--------|-(9)--------|--------|
|-10--------|-10---------|--------|
|-----------|------------|--------|
|-----------|------------|--------|


   W                W                   W                W
|-----------------|------------------|-----------------|--------------------|
|-----------------|------------------|-----------------|--------------------|
|-----------------|------------------|-----------------|--------------------|
|-----------------|------------------|-----------------|--------------------|
|-----------------|------------------|-----------------|--------------------|
|-----------------|------------------|-----------------|--------------------|
|
|  Q   Q   Q   Q    Q   E Q   E E  E    Q   Q   Q   Q    Q   E Q   E E  E
|-----------------|------------------|-----------------|--------------------|
|-----------------|------------------|-----------------|--------------------|
|-12------12------|-9-----9-----9----|-12------12------|-9-----9-----9------|
|-----10------10--|----10----10---10-|-----10------10--|----10----10---10---|
|-----------------|------------------|-----------------|--------------------|
|-----------------|------------------|-----------------|--------------------|


   W                        W
|-------------------------|---------------------|
|--5----------------------|---------------------|
|--5----------------------|---------------------|
|-------------------------|---------------------|
|-------------------------|---------------------|
|-------------------------|---------------------|
|
|  PM--------------------------------------------
|  e  e  e  e  e  e  e  e   e e e e  e  e  e  e
|-------------------------|---------------------|
|-------------------------|---------------------|
|-------------------------|---------------------|
|-10-10-10-10-10-10-10-10-|-7-7-7-7--9--9--9--9-|
|-12-12-12-12-12-12-12-12-|-8-8-8-8-10-10-10-10-|
|-------------------------|---------------------|


   W                        W
|-------------------------|-----------------------|
|-------------------------|-----------------------|
|-------------------------|-----------------------|
|-------------------------|-----------------------|
|-------------------------|-----------------------|
|-------------------------|-----------------------|
|
|--------------------------------------------|
|  e  e  e  e  e  e  e  e   e e e e  e  e  e  e
|-------------------------|-----------------------|
|-------------------------|-----------------------|
|-------------------------|-----------------------|
|-10-10-10-10-10-10-10-10-|-7-7-7-7--9--9--9--9---|
|-12-12-12-12-12-12-12-12-|-8-8-8-8-10-10-10-10---|
|-------------------------|-----------------------|


   W                        W
|-------------------------|---------------------|
|--5----------------------|---------------------|
|--5----------------------|---------------------|
|-------------------------|---------------------|
|-------------------------|---------------------|
|-------------------------|---------------------|
|
|  PM--------------------------------------------
|  e  e  e  e  e  e  e  e   e e e e  e  e  e  e
|-------------------------|---------------------|
|-------------------------|---------------------|
|-------------------------|---------------------|
|-10-10-10-10-10-10-10-10-|-7-7-7-7--9--9--9--9-|
|-12-12-12-12-12-12-12-12-|-8-8-8-8-10-10-10-10-|
|-------------------------|---------------------|


   W                        W
|-------------------------|---------------------|
|-------------------------|---------------------|
|-------------------------|---------------------|
|-------------------------|---------------------|
|-------------------------|---------------------|
|-------------------------|---------------------|
|
|---------------------------------|
|  e  e  e  e  e  e  e  e   E E E E  E  E  E  E
|-------------------------|---------------------|
|-------------------------|---------------------|
|-------------------------|---------------------|
|-10-10-10-10-10-10-10-10-|-7-7-7-7--9--9--9--9-|
|-12-12-12-12-12-12-12-12-|-8-8-8-8-10-10-10-10-|
|-------------------------|---------------------|


     E  E  E  S  S  E  E  E  E    E  E  E  S  S  E  E  E  E
||-----------------------------|----------------------------|
||o-10-10-10-10-10-10-10-10-10-|-10-10-10-10-10-10-10-10-10-|
||-----------------------------|----------------------------|
||---7--7--7--7--7--7--7--7--7-|--7--7--7--7--7--7--7--7--7-|
||o----------------------------|----------------------------|
||-----------------------------|----------------------------|
|
|    E  E  E  S  S  E  E  E  E    E  E  E  S  S  E  E  E  E
||-----------------------------|----------------------------|
||o-10-10-10-10-10-10-10-10-10-|-10-10-10-10-10-10-10-10-10-|
||---9--9--9--9--9--9--9--9--9-|--9--9--9--9--9--9--9--9--9-|
||--10-10-10-10-10-10-10-10-10-|-10-10-10-10-10-10-10-10-10-|
||o----------------------------|----------------------------|
||-----------------------------|----------------------------|


   E  E  E  E  E  E  E  E    E  E  E  E  E  E  E  E
|-------------------------|---------------------------||
|-------------------------|--------------------------o||
|-12-12-12-12-12-12-12-12-|-12-12-12-12-12-12-12-12---||
|-10-10-10-10-10-10-10-10-|--9--9--9--9--9--9--9--9---||
|-------------------------|--------------------------o||
|-------------------------|---------------------------||
|
|  E  E  E  E  E  E  E  E    E  E  E  E  E  E  E  E
|-------------------------|---------------------------||
|-------------------------|--------------------------o||
|-12-12--9--9-12-12--9--9-|-12-12--9--9-12-12--9--9---||
|-10-10-10-10-10-10-10-10-|--9--9--9--9--9--9--9--9---||
|-------------------------|--------------------------o||
|-------------------------|---------------------------||


  Wx8
|--------|
|--------|
|--------|
|--------|
|--------|
|--------|


   H.                 Q       H.                 Q
|--------------------------|--------------------------|
|--------------------------|--------------------------|
|-14-----------------12----|-14-----------------12----|
|--------------------------|--------------------------|
|--------------------------|--------------------------|
|--------------------------|--------------------------|
|
|  PM--------------------------------------------------
|  e   e  e  e  e  e  e  e    e   e  e  e  e  e  e  e
|--------------------------|--------------------------|
|--------------------------|--------------------------|
|-12--12--9--9-12-12--9--9-|-12--12--9--9-12-12--9--9-|
|-10--10-10-10-10-10-10-10-|-10--10-10-10-10-10-10-10-|
|--------------------------|--------------------------|
|--------------------------|--------------------------|


   >
   W                  +W
|------------------|--------------------|
|-13---------------|-(13)---------------|
|------------------|--------------------|
|------------------|--------------------|
|------------------|--------------------|
|------------------|--------------------|
|
|-------------------------------------|
|  e e e e e e e e     e  e e e e e e e
|------------------|--------------------|
|------------------|--------------------|
|--9-9-9-9-9-9-9-9-|---5--5-5-5-5-5-5-5-|
|--7-7-7-7-7-7-7-7-|---7--7-7-7-7-7-7-7-|
|------------------|--------------------|
|------------------|--------------------|


   Q     E  Q.    Q          Q     E  Q.    Q
|-------------------------|-------------------------|
|-------------------------|-------------------------|
|-------------------------|-------------------------|
|-10----14-14----14-------|-10----14-14----14-------|
|-------------------------|-------------------------|
|-------------------------|-------------------------|
|
|  H..               T  T    H..               T  T
|-------------------------|-------------------------|
|-10----------------10-10-|-10----------------10-10-|
|--9-----------------9--9-|--9-----------------9--9-|
|-10----------------10-10-|-10----------------10-10-|
|-------------------------|-------------------------|
|-------------------------|-------------------------|


   Q     E  Q.    Q          Q   E  Q.    Q
|-------------------------|--------------------|
|-------------------------|--------------------|
|-------------------------|--------------------|
|-10----14-14----14-------|-10--14-14----14----|
|-------------------------|--------------------|
|-------------------------|--------------------|
|
|  H..               T  T    W
|-------------------------|--------------------|
|-10----------------10-10-|-10-----------------|
|--9-----------------9--9-|--9-----------------|
|-10----------------10-10-|-10-----------------|
|-------------------------|--------------------|
|-------------------------|--------------------|


   W           W           Wx2
|-----------|------------|--------|
|-----------|------------|--------|
|-----------|------------|--------|
|-----------|------------|--------|
|-----------|------------|--------|
|-----------|------------|--------|
|
|  >
|  W           W           Wx2
|-----------|------------|--------|
|-10--------|-10---------|--------|
|--9--------|-(9)--------|--------|
|-10--------|-10---------|--------|
|-----------|------------|--------|
|-----------|------------|--------|


   W                W                   W                W
|-----------------|------------------|-----------------|------------------|
|-----------------|------------------|-----------------|------------------|
|-----------------|------------------|-----------------|------------------|
|-----------------|------------------|-----------------|------------------|
|-----------------|------------------|-----------------|------------------|
|-----------------|------------------|-----------------|------------------|
|
|  Q   Q   Q   Q    Q   E Q   E E  E    Q   Q   Q   Q    Q   E Q   E E  E
|-----------------|------------------|-----------------|------------------|
|-----------------|------------------|-----------------|------------------|
|-12------12------|-9-----9-----9----|-12------12------|-9-----9-----9----|
|-----10------10--|----10----10---10-|-----10------10--|----10----10---10-|
|-----------------|------------------|-----------------|------------------|
|-----------------|------------------|-----------------|------------------|


   W                        W
|-------------------------|---------------------|
|--5----------------------|---------------------|
|--5----------------------|---------------------|
|-------------------------|---------------------|
|-------------------------|---------------------|
|-------------------------|---------------------|
|
|  PM--------------------------------------------
|  e  e  e  e  e  e  e  e   e e e e  e  e  e  e
|-------------------------|---------------------|
|-------------------------|---------------------|
|-------------------------|---------------------|
|-10-10-10-10-10-10-10-10-|-7-7-7-7--9--9--9--9-|
|-12-12-12-12-12-12-12-12-|-8-8-8-8-10-10-10-10-|
|-------------------------|---------------------|


   W                        W
|-------------------------|---------------------|
|-------------------------|---------------------|
|-------------------------|---------------------|
|-------------------------|---------------------|
|-------------------------|---------------------|
|-------------------------|---------------------|
|
|--------------------------------------------|
|  e  e  e  e  e  e  e  e   e e e e  e  e  e  e
|-------------------------|---------------------|
|-------------------------|---------------------|
|-------------------------|---------------------|
|-10-10-10-10-10-10-10-10-|-7-7-7-7--9--9--9--9-|
|-12-12-12-12-12-12-12-12-|-8-8-8-8-10-10-10-10-|
|-------------------------|---------------------|


   W                        W
|-------------------------|---------------------|
|--5----------------------|---------------------|
|--5----------------------|---------------------|
|-------------------------|---------------------|
|-------------------------|---------------------|
|-------------------------|---------------------|
|
|  PM--------------------------------------------
|  e  e  e  e  e  e  e  e   e e e e  e  e  e  e
|-------------------------|---------------------|
|-------------------------|---------------------|
|-------------------------|---------------------|
|-10-10-10-10-10-10-10-10-|-7-7-7-7--9--9--9--9-|
|-12-12-12-12-12-12-12-12-|-8-8-8-8-10-10-10-10-|
|-------------------------|---------------------|


   W                        W
|-------------------------|---------------------|
|-------------------------|---------------------|
|-------------------------|---------------------|
|-------------------------|---------------------|
|-------------------------|---------------------|
|-------------------------|---------------------|
|
|---------------------------------|
|  e  e  e  e  e  e  e  e   E E E E  E  E  E  E
|-------------------------|---------------------|
|-------------------------|---------------------|
|-------------------------|---------------------|
|-10-10-10-10-10-10-10-10-|-7-7-7-7--9--9--9--9-|
|-12-12-12-12-12-12-12-12-|-8-8-8-8-10-10-10-10-|
|-------------------------|---------------------|


     E  E  E  S  S  E  E  E  E    E  E  E  S  S  E  E  E  E
||-----------------------------|----------------------------|
||o-10-10-10-10-10-10-10-10-10-|-10-10-10-10-10-10-10-10-10-|
||-----------------------------|----------------------------|
||---7--7--7--7--7--7--7--7--7-|--7--7--7--7--7--7--7--7--7-|
||o----------------------------|----------------------------|
||-----------------------------|----------------------------|
|
|    E  E  E  S  S  E  E  E  E    E  E  E  S  S  E  E  E  E
||-----------------------------|----------------------------|
||o-10-10-10-10-10-10-10-10-10-|-10-10-10-10-10-10-10-10-10-|
||---9--9--9--9--9--9--9--9--9-|--9--9--9--9--9--9--9--9--9-|
||--10-10-10-10-10-10-10-10-10-|-10-10-10-10-10-10-10-10-10-|
||o----------------------------|----------------------------|
||-----------------------------|----------------------------|


   E  E  E  E  E  E  E  E    E  E  E  E  E  E  E  E
|-------------------------|---------------------------||
|-------------------------|--------------------------o||
|-12-12-12-12-12-12-12-12-|-12-12-12-12-12-12-12-12---||
|-10-10-10-10-10-10-10-10-|--9--9--9--9--9--9--9--9---||
|-------------------------|--------------------------o||
|-------------------------|---------------------------||
|
|  E  E  E  E  E  E  E  E    E  E  E  E  E  E  E  E
|-------------------------|---------------------------||
|-------------------------|--------------------------o||
|-12-12--9--9-12-12--9--9-|-12-12--9--9-12-12--9--9---||
|-10-10-10-10-10-10-10-10-|--9--9--9--9--9--9--9--9---||
|-------------------------|--------------------------o||
|-------------------------|---------------------------||


  E E E E E E E E   E E E E E E E E   E E E E E E E E   E E E E E E E E
|-----------------|-----------------|-----------------|-----------------|
|-----------------|-----------------|-----------------|-----------------|
|-----------------|-----------------|-----------------|-----------------|
|-7-7-7-7-7-7-7-7-|-7-7-7-7-7-7-7-7-|-9-9-9-9-9-9-9-9-|-9-9-9-9-9-9-9-9-|
|-----------------|-----------------|-----------------|-----------------|
|-----------------|-----------------|-----------------|-----------------|


                                            >
  E E E E  E E E  E   E  E  E E E  E E E    W           +W
|-------------------|--------------------|-----------|---------|
|-------------------|--------------------|-----------|---------|
|-------------------|--------------------|-----------|---------|
|-7-7-7-7-10-7-7-10-|-7-10-10-7-7-10-7-7-|-10--------|-(10)----|
|-------------------|--------------------|-----------|---------|
|-------------------|--------------------|-----------|---------|


   E  E  E  E  E  E  E  E    E  E  E  E  E  E  E  E
|-------------------------|-------------------------|
|-------------------------|-------------------------|
|-------------------------|-------------------------|
|--7--7--7--7--7--7--7--7-|--7--7--7--7--7--7--7--7-|
|-------------------------|-------------------------|
|-------------------------|-------------------------|
|
|  E  E  E  E  E  E  E  E    E  E  E  E  E  E  E  E
|-------------------------|-------------------------|
|-------------------------|-------------------------|
|-------------------------|-------------------------|
|-14-14-14-14-14-14-14-14-|-14-14-14-14-14-14-14-14-|
|-------------------------|-------------------------|
|-------------------------|-------------------------|


   E  E  E  E  E  E  E  E    E  E  E  E  E  E  E E
|-------------------------|------------------------|
|-------------------------|------------------------|
|-------------------------|------------------------|
|--9--9--9--9--9--9--9--9-|--9--9--9--9--9--9--9-9-|
|-------------------------|------------------------|
|-------------------------|------------------------|
|
|  E  E  E  E  E  E  E  E    E  E  E  E  E  E  Q
|-------------------------|------------------------|
|-------------12-12-------|-13-13-------15-15-17---|
|-14-14-------------------|-------------------16---|
|-------14-14-------14-14-|-------14-14------------|
|-------------------------|------------------------|
|-------------------------|------------------------|


   E  E  E  E  E  E  E  E    E  E  E  E  E  E  E  E
|-------------------------|-------------------------|
|-------------------------|-------------------------|
|-------------------------|-------------------------|
|--7--7--7--7--7--7--7--7-|--7--7--7--7--7--7--7--7-|
|-------------------------|-------------------------|
|-------------------------|-------------------------|
|
|  E  E  E  E  E  E  E  E    E  E  E  E  E  E  E  E
|-------------------------|-------------------------|
|-------------------------|-------------------------|
|-------------------------|-------------------------|
|-14-14-14-14-14-14-14-14-|-14-14-14-14-14-14-14-14-|
|-------------------------|-------------------------|
|-------------------------|-------------------------|


   E  E  E  E  E  E  E  E    E  E  E  E  H
|-------------------------|-------------------------|
|-------------------------|-------------------------|
|-------------------------|-------------------------|
|-10--7--7-10--7--7-10--7-|--7-10--7--7-10----------|
|-------------------------|-------------------------|
|-------------------------|-------------------------|
|
|  E  E  E  E  E  E  E  E    E  E  E  E  E  E  Q
|-------------------------|-------------------------|
|-------------12-12-------|-13-13-------15-15-17----|
|-14-14-------------------|-------------------16----|
|-------14-14-------14-14-|-------14-14-------------|
|-------------------------|-------------------------|
|-------------------------|-------------------------|


   W              W             W             W
|--------------|--------------|------------|----------------|
|--------------|--------------|------------|----------------|
|--------------|--------------|------------|----------------|
|--------------|--------------|------------|----------------|
|--------------|--------------|------------|----------------|
|--------------|--------------|------------|----------------|
|
|  H.       Q     H.       Q    H.      Q     Q   E Q.   Q
|--------------|--------------|------------|----------------|
|--------------|--------------|-8-------8--|----------------|
|--------------|--------------|-9-------9--|----------------|
|-10-------10--|-12-------12--|------------|-12--10-9----7--|
|--------------|--------------|-7-------7--|----------------|
|--8--------8--|-10-------10--|------------|-10---8-7----5--|


   W              W             W             W
|--------------|--------------|------------|----------------|
|--------------|--------------|------------|----------------|
|--------------|--------------|------------|----------------|
|--------------|--------------|------------|----------------|
|--------------|--------------|------------|----------------|
|--------------|--------------|------------|----------------|
|
|  H.       Q     H.       Q    H.      Q     Q   E Q.   Q
|--------------|--------------|------------|----------------|
|--------------|--------------|-8-------8--|----------------|
|--------------|--------------|-9-------9--|----------------|
|-10-------10--|-12-------12--|------------|-12--10-9----7--|
|--------------|--------------|-7-------7--|----------------|
|--8--------8--|-10-------10--|------------|-10---8-7----5--|


   E  E  E  E  E  E  E  E    E  E  E  E  E  E  E  E
|-------------------------|-------------------------|
|-10-10-10-10-10-10-10-10-|--7--7--7--7--7--7--7--7-|
|--9--9--9--9--9--9--9--9-|--7--7--7--7--7--7--7--7-|
|-10-10-10-10-10-10-10-10-|--9--9--9--9--9--9--9--9-|
|-------------------------|-------------------------|
|-------------------------|-------------------------|
|
|  E  E  E  E  E  E  E  E    E  E  E  E  E  E  E  E
|-------------------------|-------------------------|
|-------------------------|-------------------------|
|--9--9--9--9--9--9--9--9-|-11-11-11-11-11-11-11-11-|
|-------------------------|-------------------------|
|--7--7--7--7--7--7--7--7-|--9--9--9--9--9--9--9--9-|
|-------------------------|-------------------------|


   E  E  E  E  E  E  E  E    E  E  E  E  E  E  E  E
|-------------------------|-------------------------|
|-------------------------|-------------------------|
|-12-12-12-12-12-12-12-12-|--7--7--7--7--7--7--7--7-|
|-12-12-12-12-12-12-12-12-|--9--9--9--9--9--9--9--9-|
|-10-10-10-10-10-10-10-10-|-10-10-10-10-10-10-10-10-|
|-------------------------|-------------------------|
|
|  E  E  E  E  E  E  E  E    E  E  E  E  E  E  E  E
|-------------------------|-------------------------|
|-------------------------|-------------------------|
|-12-12-12-12-12-12-12-12-|-------------------------|
|-------------------------|-12-12-10--9--9--9-10-10-|
|-10-10-10-10-10-10-10-10-|-------------------------|
|-------------------------|-10-10--8--7--7--7--8--8-|


   E  E  E  E  E  E  E  E    E  E  E  E  E  E  E  E
|-------------------------|-------------------------|
|-10-10-10-10-10-10-10-10-|--7--7--7--7--7--7--7--7-|
|--9--9--9--9--9--9--9--9-|--7--7--7--7--7--7--7--7-|
|-10-10-10-10-10-10-10-10-|--9--9--9--9--9--9--9--9-|
|-------------------------|-------------------------|
|-------------------------|-------------------------|
|
|  E  E  E  E  E  E  E  E    E  E  E  E  E  E  E  E
|-------------------------|-------------------------|
|-------------------------|-------------------------|
|--9--9--9--9--9--9--9--9-|-11-11-11-11-11-11-11-11-|
|-------------------------|-------------------------|
|--7--7--7--7--7--7--7--7-|--9--9--9--9--9--9--9--9-|
|-------------------------|-------------------------|


   E  E  E  E  E  E  E  E    E  E  E  E  E  E  E  E
|-------------------------|-------------------------|
|-------------------------|-------------------------|
|-12-12-12-12-12-12-12-12-|--7--7--7--7--7--7--7--7-|
|-12-12-12-12-12-12-12-12-|--9--9--9--9--9--9--9--9-|
|-10-10-10-10-10-10-10-10-|-10-10-10-10-10-10-10-10-|
|-------------------------|-------------------------|
|
|  E  E  E  E  E  E  E  E    E  E  E  E  E  E  E  E
|-------------------------|-------------------------|
|-------------------------|-------------------------|
|-12-12-12-12-12-12-12-12-|-------------------------|
|-------------------------|--9--9--9--9--9--9--9--9-|
|-10-10-10-10-10-10-10-10-|-------------------------|
|-------------------------|--7--7--7--7--7--7--7--7-|


   E  E  E  E  E  E  E  E    E  E  E  E  E  E  E  E
|-------------------------|-------------------------|
|-13-13-13-13-13-13-13-13-|-13-13-13-13-12-12-12-12-|
|-------------------------|-------------------------|
|-10-10-10-10-10-10-10-10-|-10-10-10-10--9--9--9--9-|
|-------------------------|-------------------------|
|-------------------------|-------------------------|
|
|  E  E  E  E  E  E  E  E    E  E  E  E  E  E  E  E
|-------------------------|-------------------------|
|-12-12-12-12-12-12-12-12-|--8--8--8--8--8--8--8--8-|
|--9--9--9--9--9--9--9--9-|--9--9--9--9--9--9--9--9-|
|-10-10-10-10-10-10-10-10-|-10-10-10-10-10-10-10-10-|
|-------------------------|-------------------------|
|-------------------------|-------------------------|


   E  E  E  E  E  E  E  E    E  E  E  E  E  E  E  E
|-------------------------|-------------------------|
|-15-15-15-15-15-15-15-15-|-17-17-17-17-17-17-17-17-|
|-------------------------|-------------------------|
|-12-12-12-12-12-12-12-12-|-14-14-14-14-14-14-14-14-|
|-------------------------|-------------------------|
|-------------------------|-------------------------|
|
|  E  E  E  E  E  E  E  E    E  E  E  E  E  E  E  E
|-------------------------|-------------------------|
|-------------------------|-------------------------|
|-10-10-10-10-10-10-10-10-|--9--9--9--9--9--9--9--9-|
|-12-12-12-12-12-12-12-12-|-10-10-10-10-10-10-10-10-|
|-12-12-12-12-12-12-12-12-|-10-10-10-10-10-10-10-10-|
|-------------------------|-------------------------|


   E  E  E  E  E  E  E  E    E  E  E  E  E  E  E  E
|-------------------------|-------------------------|
|-13-13-13-13-13-13-13-13-|-13-13-13-13-12-12-12-12-|
|-------------------------|-------------------------|
|-10-10-10-10-10-10-10-10-|-10-10-10-10--9--9--9--9-|
|-------------------------|-------------------------|
|-------------------------|-------------------------|
|
|  E  E  E  E  E  E  E  E    E  E  E  E  E  E  E  E
|-------------------------|-------------------------|
|-12-12-12-12-12-12-12-12-|--8--8--8--8--8--8--8--8-|
|--9--9--9--9--9--9--9--9-|--9--9--9--9--9--9--9--9-|
|-10-10-10-10-10-10-10-10-|-10-10-10-10-10-10-10-10-|
|-------------------------|-------------------------|
|-------------------------|-------------------------|


                            H.=H
   E  E  E  E  E  E  E  E    W
|-------------------------|-------|
|-------------------------|-------|
|-------------------------|-------|
|-12-12-12-12-12-12-12-12-|-------|
|-------------------------|-10----|
|-10-10-10-10-10-10-10-10-|--0----|
|
|  E  E  E  E  E  E  E  E    W
|-------------------------|-------|
|-------------------------|--0----|
|-10-10-10-10-10-10-10-10-|--9----|
|-12-12-12-12-12-12-12-12-|-10----|
|-12-12-12-12-12-12-12-12-|-10----|
|-------------------------|--0----|


Duration Legend
---------------
W - whole; H - half; Q - quarter; E - 8th; S - 16th; T - 32nd; X - 64th; a - acciaccatura
+ - note tied to previous; . - note dotted; .. - note double dotted
Uncapitalized letters represent notes that are staccato (1/2 duration)
Irregular groupings are notated above the duration line
Duration letters will always appear directly above the note/fret number it represents the
duration for.  Duration letters with no fret number below them represent rests.  Multi-
bar rests are notated in the form Wxn, where n is the number of bars to rest for.  Low
melody durations appear below the staff

Tablature Legend
----------------
 h   - hammer-on
 p   - pull-off
 b   - bend
 pb  - pre-bend
 r   - bend release (if no number after the r, then release immediately)
 /\  - slide into or out of (from/to "nowhere")
 s   - legato slide
 S   - shift slide
  - natural harmonic
[n]  - artificial harmonic
n(n) - tapped harmonic
 ~   - vibrato
 tr  - trill
 T   - tap
 TP  - trem. picking
 PM  - palm muting
\n/  - tremolo bar dip; n = amount to dip
 \n  - tremolo bar down
 n/  - tremolo bar up
/n\  - tremolo bar inverted dip
 =   - hold bend; also acts as connecting device for hammers/pulls
 <>  - volume swell (louder/softer)
 x   - on rhythm slash represents muted slash
 o   - on rhythm slash represents single note slash

Misc Legend
-----------
 |  - bar
||  - double bar
||o - repeat start
o|| - repeat end
*|  - double bar (ending)
 :  - bar (freetime)
 $  - Segno
 &  - Coda
Tempo markers -  = BPM(8/16=s8/s16), where s8 = swing 8ths, s16 = swing 16ths
Tap to rate this tab
 
# A B C D E F G H I J K L M N O P Q R S T U V W X Y Z