Song name
# A B C D E F G H I J K L M N O P Q R S T U V W X Y Z

The Maccabees - Good Old Bill tab

   Intro Bass

E|-------------------------------------------------------------------------|
B|-------------------------------------------------------------------------|
G|-------------------------------------------------------------------------|
D|-------5---------5---------5---------5---------5---------5--------5------|
A|--3---------0---------3---------0---------3---------0---------3-------0--|
E|-------------------------------------------------------------------------|
 
   Intro Rythmn Guitar

e|-------------------------------------------------------------------------|
B|-------------------------------------------------------------------------|
G|--17--------17--------17--------17--------17-------17--------17------17--|
D|--17--------17--------17--------17--------17-------17--------17------17--|
A|--15--------0---------15--------0---------15-------0---------15------0---|
E|-------------------------------------------------------------------------|
 
   Intro Lead

e|-------------8----/15------------\8-----/10\5-----8---/15---15--- 8-/15--|
B|-------------------------------------------------------------------------|
G|-------------------------------------------------------------------------|
D|-------------------------------------------------------------------------|
A|-------------------------------------------------------------------------|
E|-------------------------------------------------------------------------|
 
   Verse Rythmn Acoustic Guitar x2

e|--5-----5-----5-----5---5---5---9--10---5---5---9---10-------------------|
B|--5-----5-----5-----5---5---5---9--10---5---5---9---10-------------------|
G|--5-----5-----5-----5---5---5---9--10---5---5---9---10-------------------|
D|--5-----5-----5-----5---5---5---9--10---5---5---9---10-------------------|
A|--3-----0-----3-----0---3---0---7---8---3---0---7---8--------------------|
E|-------------------------------------------------------------------------|

e|-5---5---9---10--5---5---9-----------------------------------------------|
B|-5---5---9---10--5---5---9-----------------------------------------------|
G|-5---5---9---10--5---5---9-----------------------------------------------|
D|-5---5---9---10--5---5---9-----------------------------------------------|
A|-3---0---7---8---3---0---7-----------------------------------------------|
E|-------------------------------------------------------------------------|

On The 2nd Time Orlando Sings 'The Engine It Wont Start Without Him',The Lead Guitar Plays...

e|------8/15\13--------8/15\13-----------8/15\13----------8/15\13----------|
B|-------------------------------------------------------------------------|
G|------And The Bass Plays...----------------------------------------------|
D|-------------------------------------------------------------------------|
A|-----3------0------------------------------------------------------------|
E|------------------0------------------------------------------------------|
 
Next Verse Is The Same Except The Lead Plays...

e|------------------------------------------------------------------------| 
B|-------------------------------------------------------------------------|
G|--------7------5---------------------------------------------------------|
D|---------------------7---------------------------------------------------|
A|-------------------------------------------------------------------------|
E|-------------------------------------------------------------------------|
 
   Outro Bass
e|-------------------------------------------------------------------------|
B|-------------------------------------------------------------------------|
G|-------------------------------------------------------------------------|
D|-------------------------------------------------------------------------|
A|--3--3--3--3--0--0--0--0-------------------------------------------------|
E|-------------------------0--0--0--0--0-----------------------------------|
 
   Rythmn Guitar 

e|-------------------------------------------------------------------------|
B|-------------------------------------------------------------------------|
G|-------------------------------------------------------------------------|
D|---5--5--5--5--5--5--5--5------------------------------------------------|
A|--3--3--3--3--0--0--0--0-------------------------------------------------|
E|-------------------------------------------------------------------------|
 
   Lead Guitar

   Just Play Around With These Notes Untill The End Of The Song  

e|--5--5/---9--9---5--5/---8--8----3--3/---9--9----8--8---12-12--8--8---10-|
B|--5--5/---9--9---5--5/---10-10---5--5/---10-10---10-10--10-10--10-10--10-|
G|-------------------------------------------------------------------------|
D|-------------------------------------------------------------------------|
A|-------------------------------------------------------------------------|
E|-------------------------------------------------------------------------|
 

   Chords And Lyrics

   Inro  C  Am  C  Am

 C                  Am                     C                     Am
Spearmint Rhino was taking our money when Gran was robbed of her own life honey.
C              Am          E          F
The driverless hornet las post on the trumpet.
C             Am           E          F
His blind, crippled crumpet don't like it but lump it.
C              Am          E         F  x2    E
The engine won't start without him.               

C                 Am         C           Am 
So I went down to Sherry's mod suits and Paul Weller.
C                 Am          C          Am
All pork pies and drainpipes to wear in all weather.
C                 Am         E           F
All of us shed a tear thinking of yesteryear.
C                Am          E        F
Raise whiskey, raise beer, the old boy is not here.
C             Am           E        F  x4 E
The engine won't start without him,                           

   C                  Am                  C                    Am
And so he's left us done to the nines with satin for lining and a coating 
              C             Am        E            F         C        Am    
of pine and the engine is broke I can't fix and I've lost all the coals and 
   E           F    
we're running quite low...


Tap to rate this tab
# A B C D E F G H I J K L M N O P Q R S T U V W X Y Z