Song name
# A B C D E F G H I J K L M N O P Q R S T U V W X Y Z

The Maccabees - Tissue Shoulders tab

Help us improve GuitareTab! Take a short survey!
ok, here is the rift and intro for the song

e-------------------------------|
B-------------------------------|
G---6--4------------------------|
D---------6--4--2--------2------|
A-----------------4-2-4---------|
E-------------------------------|

there are chords played with it but I can't figure it out.

another part I figured out was when he says "don't wanna lie alone..."
goes something like this

e---------------------------------9-9-9------|
B-----9---12-12-12--9--------9-----------9---|
G---9---9------------------9---9-------------|
D--------------------------------------------|
A--------------------------------------------|
E--------------------------------------------|


ok i did my best. enjoy
Related for Tissue Shoulders tab