Song name
# A B C D E F G H I J K L M N O P Q R S T U V W X Y Z

The Maccabees - First Love Acoustic tab

This is for the version Orlando plays at Freshly Squeezed. Rythm is easy to figure out, 
just listed the chords used. Beautiful performance that needed to be tabbed!

Tabbed by Robert Janson, kattenjanson[at]gmail.com.

http://www.youtube.com/watch?v=5fYgW43H4Bk

Standard tuning, no capo.

Intro
(watch vid for timing etc.)
e|---- ---- ---- ----|
b|---- ---- ---- ----|
g|-13- -13- -13- -14-|
d|-11- -11- -13- -13-|
a|-0-- -9-- -11- -12-|
e|-0-- -9-- -0-- -0--|

Verse
(watch the video, really easy to figure out)
e|--- ---|
b|--- ---|
g|--- ---|
d|-7- -7-|
a|-7- -7-|
e|-5- -0-|

Chorus
(these three chords, again, listen and you'll understand)
e|--- --- ---|
b|--- --- ---|
g|-4- --- ---|
d|-4- -7- -7-|
a|-2- -7- -7-|
e|--- -5- -0-|

Variation
(again, only listing chords used)
("It's my mistake and no mistake...")
e|-1- --- --- ---|
b|-3- --- --- ---|
g|-2- -4- --- ---|
d|--- -4- -7- -7-|
a|--- -2- -7- -7-|
e|--- --- -5- -0-|

Hope you enjoy the tab! Feel free to correct any mistakes I've made, I'm only a drummer. :)
Tap to rate this tab
# A B C D E F G H I J K L M N O P Q R S T U V W X Y Z