Song name
# A B C D E F G H I J K L M N O P Q R S T U V W X Y Z

The Maccabees - Happy Faces tab

-------------------------------------------------------------------------------
			     Happy Faces - The Maccabees
-------------------------------------------------------------------------------
Simple tab, listen to song to get strumming correct.
Thanks and enjoy! :)

Tabbed by: Pauli Finnigan
Email: indiekidda@hotmail.co.uk

Tuning: EADGBe

Intro Riff
      A
e|--5-5-5-------------------------------------------------------------------|
B|---------5-7--------------------------------------------------------------|
G|--------7-----------------------------------------------------------------|
D|--------------------------------------------------------------------------|
A|--------------------------------------------------------------------------|
E|-5-5-5--------------------------------------------------------------------|

  RIff I
      D
e|--------------------------------------------------------------------------|
B|--------------------------------------------------------------------------|
G|--------------------------------------------------------------------------|
D|-------44-77--------------------------------------------------------------|
A|-55-77--------------------------------------------------------------------|
E|--------------------------------------------------------------------------|

| /  slide up
| \  slide down
| h  hammer-on
| p  pull-off
| ~  vibrato
| +  harmonic
| x  Mute note
===============================================================================
Tap to rate this tab
 
# A B C D E F G H I J K L M N O P Q R S T U V W X Y Z