The Mad Trist - Pay The Piper tab

Main [Guitar 1]

e|----------------------------------------------------------------|
B|----------------------------------------------------------------|
G|---5-5---5--------5-5---5--------8-8---8--------6-6---6---------|
D|----------------------------------------------------------------|    X allot
A|---3-3---3--------5-5---5--------6-6---6--------4-4---4---------|
E|----------------------------------------------------------------|


verse [Guitar 1]

e|------------------------------------------|
B|------------------------------------------|
G|------------------------------------------|
D|---6-6--6-6-6-6--6-6---6-6-6-6------------|
A|---4-4--4-4-4-4--4-4---4-4-4-4------------|
E|------------------------------------------|



|----------------------------------------------------------------|
|----------------------------------------------------------------|
|----------------------------------------------------------------|
|---------------9-9--9-9-9---------------------------------------|
|4-4--4-4-4-4---7-7--7-7-7-------7-7--7-7-7-7--7-7--7-7-7-7------|
|2-2--2-2-2-2--------------------5-5--5-5-5-5--5-5--5-5-5-5------|



|------------------------------------------|
|------------------------------------------|
|------------------------------------------|
|----------------3-3--4-4------------------|
|5-5---5-5-5-5---1-1--2-2------------------|
|3-3---3-3-3-3-----------------------------|


[Guitar 2]

e|----------------------------------------------------|
B|----------------------------------------------------|
G|-----12-----8--------8~----------12-----8--------8~-|
D|---------------10----------------------------10-----|
A|----------------------------------------------------|
E|----------------------------------------------------|


-----------------------------------------------------------|
-----------------------------------------------------------|
--------12------8----10-------8--10-11-10----8-------------|
----------------------10-----------------------------------|
-----------------------------------------------------------|
-----------------------------------------------------------|


Solo [Guitar 2] All fast pic

e|----------------------------------------------------------|
B|----------------------------------------------------------|
G|-----8--7---5------------8--7-9---12---------8--7---/-----|
D|----------------------------------------------------------|
A|----------------------------------------------------------|
E|----------------------------------------------------------|

you'll know how to pic the solo after listening to the song.

Cheerrsss^^
Tap to rate this tab
 
# A B C D E F G H I J K L M N O P Q R S T U V W X Y Z