Song name
# A B C D E F G H I J K L M N O P Q R S T U V W X Y Z

The Maddigans - Leave It Out To Me chords

Highlighted       Show chord diagrams
The Maddigans
Leave It To Me
Say It Loud
2009
Submitted by: paramore_fans@yahoo.com

Key: Bb

Tuning: Standard EADGBe

Chords used:
Gm -  355333
F -   133211
Eb -  x68886
Bb -  x13331
F/A - x032xx


Intro: Gm--F--Eb--

Guitar 2:
e|----------13--------13--------13---------13-|
B|----11--------11--------11---------11-------|
G|-10----10--------10--------10---------10----|
D|--------------------------------------------|
A|--------------------------------------------|
E|--------------------------------------------|

e|----------10-----------10-|
B|----11--------11----11----|
G|-10----10--------10-------|
D|--------------------------|
A|--------------------------|
E|--------------------------|


Verse 1:
Gm              F
  I didn't mean for it
    Gm        Eb
to start like them
Gm               F
  A hundred days have passed
       Gm    Eb
It was all I had


Refrain 1:
Gm              F
  I learned and you learned
   Gm            F
and  I found but you found
    Gm             F
your  silence it's killing me
Gm             Eb
killing me say anything


Interlude: Eb--F--Gm--F/A-Bb- x2


Guitar 2:
e|---------------------------------|
B|-----3-------3-------3-----4---3-|
G|---3---3---3---3---3---3-2---3---|
D|-1-------3-------5---------------| x2
A|---------------------------------|
E|---------------------------------|


Chorus 1:
Eb
  The simple thing of lies
Bb
  coz I tried and i tried
Eb
  when the seasons changed
Gm         Bb
  it's too it's too late
Eb
  Coz when the leaves turned red
Bb
  I tired and I tried
Gm
  That's the reason why
F                   Eb
  it's too it's too late


Verse 2:
Gm                   F
  I'm gonna leave it out
           Gm     Eb
to me to remember everything
    Gm
The pictures and all
    F
the tickets stuff and
    Gm      Eb
the song to sing


Refrain 2:
Gm           F
  I know but you know
   Gm            F
and  I found but you found
    Gm             F
your  silence it's killing me
Gm             Eb
killing me say anything


(Repeat Interlude and Chorus)


Interlude: Gm--Eb-- x2

Guitar 2:
e|----------------------|----------------------|
B|----------------------|----------------------|
G|----------------------|--------------------3-|
D|-1--0h1p0----1--0h1h3-|-1--0h1p0----1--0h1---|
A|----------1-----------|----------1-----------|
E|----------------------|----------------------|
           x3

Bridge:
Bb        F
  I found there's no
       Gm
reason for this will
Eb        Bb
fall apart  I'll be
F
right here waiting
Gm        Eb
wondering where
    Gm   Eb(hold)
you are again


Chorus 2:
Eb           F
  The simple thing of lies
Gm                F/A
  coz I tried and i  tried
Eb         F
  when the seasons changed
Gm                  Eb  Bb
  it's too it's too late
                   Eb
I tried and i tried
Gm        Bb    Eb
  it's o, it's okay
Bb                  Gm
  coz I tried and i tried
F
  it's o, it's okay


Chorus 3:
Eb
  The simple thing of lies
Bb
  coz I tried and i tried
Eb
  when the seasons changed
Gm         Bb
  it's too it's too late
Eb
  Coz when the leaves turned grey
Bb
  I tired and I tried
Gm
  That's the reason why
F                   Eb
  it's too it's too late


Outro:
Eb
  Didn't mean somthing to you
Bb
  Didn't mean something to you
Eb
  Didn't mean something to you
Gm        Bb
  it's o, it's okay
Eb
  Didn't mean something to you
Bb
  Didn't mean something to you
Gm
  Didn't mean something to you
F               Eb(hold)
  it's o, it's okay
Tap to rate this tab
 
# A B C D E F G H I J K L M N O P Q R S T U V W X Y Z