Song name
# A B C D E F G H I J K L M N O P Q R S T U V W X Y Z

The Mae Shi - Lamb And The Lion tab

Help us improve GuitareTab! Take a short survey!
Song: Lamb and Lion
Artist: The Mae Shi
Album: HLLLYH

Tuning: Standard
Difficulty: Novice
Transcribed by: Jesse Boechler (Atomic48)

There are a few things I'd like to clear up before beginning:
In Riff 2 all of the notes are octaves of C except for that one hammer-on to 10. So if 
portion is too difficult it's possible to just play the '10' all the way through.
After the chorus, Riff 1 is played in single notes. Play it however you see fit.
I realize what I've labeled as the end is not the 'true' ending but should you wish to 
that part too it's a series of inconsistent varying bends on the D string, 10th fret, 
ends on a slide down.
And thanks to The Mae Shi for writing this song.


  Riff 1
e|-------------------------------------------|
B|-------------------------------------------|
G|-9-9-10-10-12-12-10-10-9-9-------9-9-------|
D|---------------------------12-12-----10-10-|
A|-------------------------------------------|
E|-------------------------------------------|


  Riff 2
e|---------------------------------------------8-8---------8h10p8-------------|
B|----------------------------------------------------------------------------|
G|----------------------------------------------------------------------------|
D|-[10-10]-10-10-10-10-----10-10-----10-10------------------------10-10-10-10-|
A|----------------------------------------------------------------------------|
E|---------------------8-8-------8-8-------8-8-----8-8-8-8--------------------|
   [Omit unless playing the intro]


  Chorus
e|---|---|---|---|
B|---|---|---|---|
G|-5-|---|---|-5-|
D|-5-|-5-|-3-|-5-|
A|-3-|-5-|-3-|-3-|
E|---|-3-|-1-|---|

  C5  G5  F5  C5


  End
e|-8-8-8-8-|
B|---------|
G|---------|
D|---------|
A|---------|
E|---------|


Song Layout:

Riff 2 x 1

Riff 1 x 6
Riff 2 x 1

Riff 1 x 6
Riff 2 x 1

Riff 1 x 6 (The Singing Begins)
Riff 2 x 1

Chorus x 2

Non-Instrumental Chorus

Riff 1 x 6
End    x 7
(Hit the note once more and slide down at the end)
Related for Lamb And The Lion tab